Song name
# A B C D E F G H I J K L M N O P Q R S T U V W X Y Z

That Handsome Devil - Mexico tab

Album: A City Dressed In Dynamite


Intro:

Guitar 1
|-----------------| X6
|-----6-6-----5-5-|
|-7-7-----5-5-----|
|-----------------|
|-----------------|
|-----------------|
  . . . . . . . .


Verse A:

Guitar 1 
|-----------------| X16
|-----6-6-----5-5-|
|-7-7-----5-5-----|
|-----------------|
|-----------------|
|-----------------|
  . . . . . . . .

Guitar 2
|-10------------10---9-------------9--10------------10---9------------|
|-10------------10--10------------10--10------------10--10------------|
|-10------------10--10------------10--10------------10--10------------|
|---------------------------------------------------------------------|
|---------------------------------------------------------------------|
|---------------------------------------------------------------------|


Chorus:

Guitar 1
|-5---------------------------5-------------------------|
|-6---------------------------6-------------------------|
|-7---------------------------7-------------------------|
|-7---------------------------7-------------------------|
|-------------------------------------------------------|
|-------------------------------------------------------|


Guitar 2
|-------------------------------------------------------|
|-------------------------------------------------------|
|-------------------------------------------------------|
|-----7-7-5-5---------5-----------7-7-5-5---------5-----|
|-5-5---------8-7-5-8---5-----5-5---------8-7-5-8---5---|
|-------------------------------------------------------|



Guitar 1
|-4-------------------------5-------------------------|
|-6-------------------------5-------------------------|
|-7-------------------------6-------------------------|
|-8-------------------------7-------------------------|
|-----------------------------------------------------|
|-----------------------------------------------------|


Guitar 2
|-----------------------------------5-----------------|
|-----------------------------------5-----------------|
|-----------------------7--7-5------6-----------------|
|-5-7-8---5-7-8---5-7-8--------8-7--------------------|
|-----------------------------------------------------|
|-----------------------------------------------------|



Guitar 1
|-----------------5------------------|
|-----------------6------------------|
|-----------------7------------------|
|-----------------7------------------|
|------------------------------------|
|------------------------------------|


Guitar 2
|-5---------------5------------------|
|-----8-6-5-6-----6------------------|
|-------------7----------------------|
|------------------------------------|
|------------------------------------|
|------------------------------------|


Bridge:

Guitar 1
|-----------------|
|-----6-6-----5-5-|
|-7-7-----5-5-----|
|-----------------|
|-----------------|
|-----------------|
  . . . . . . . .

Guitar 2
|-5------------4------------3------------1------------|
|----6------------6------------2------------3---------|
|-------7------------7------------3------------2------|
|-----------------------------------------------------|
|-----------------------------------------------------|
|-----------------------------------------------------|



Verse B (Same as Verse A)

Chorus

Bridge

Verse C (Same as Verse A)

Chorus

Verse D (No Guitar)



Outro

Guitar 1
|-5------------5------------4------------5------------|
|-6------------6------------6------------5------------|
|-7------------7------------7------------6------------|
|-7------------7------------8------------7------------|
|-----------------------------------------------------|
|-----------------------------------------------------|

Guitar 2
|----10--10-------10--10------------------------------|
|----10--10-------10--10-------9--9---------8--8------|
|----10--10-------10--10------10-10---------6--6------|
|------------------------------8--8---------7--7------|
|-----------------------------------------------------|
|-----------------------------------------------------|

Repeat until fade out...


.= Palm mute
Tap to rate this tab
# A B C D E F G H I J K L M N O P Q R S T U V W X Y Z