Song name
# A B C D E F G H I J K L M N O P Q R S T U V W X Y Z

The 1975 - Milk tab

-------------------------------------------------------------------------------
			     Milk - The 1975
-------------------------------------------------------------------------------
Tabbed by: Jalen Chin

Tuning:DADGBe
*Transcribed from listening to studio version of song and watching live versions*
*All parts played with slight distortion*

/ = Slide up
\ = Slide down
^ = Bend up

Intro: No guitar

Verse 1: Guitar 1. Matty strums the 15th fret of the E string and lets it ring
at the beginning of (She says the bleeding's incidental)

Guitar 2: Adam comes in with this at beginning of (She says the bleeding's incidental)
e|----------------------------------------------------|
B|----------------------------------------------------|
G|----------------------------------------------------|
D|----------------------------------------------------|
A|----------------------------------------------------|
D|-15-15-15-15-15\5-5-5-5-5/8-8-8-8-8--8-8-8-8-8/10/--|

e|----------------------------------------------------|
B|-------------------------------------------------13-|
G|----------------------------------------------------|
D|----------------------------------------------------|
A|----------------------------------------------------|
D|-15-15-15-15-15\5-5-5-5-5/8-8-8-8-8--8-8-8-8-8------|

Chorus: 
Guitar 1: x2 
e|----------------------------------------------------|
B|----------------------------------------------------|
G|----------------------------------------------------|
D|----------------------------------------------------|
A|----------------------------------------------------|
D|-15-15-15-15-15\5-5-5-5-5/8-8-8-8-8--8-8-8-8-8/10/--|

Guitar 2: x8 
e|--------------------|
B|-10^-10-10-10-10-13-|
G|--------------------|
D|--------------------|
A|--------------------|
D|--------------------|

Verse 2:
Guitar 2: Played from start of the verse (Slow down...)
e|----------------------------------------------------|
B|----------------------------------------------------|
G|----------------------------------------------------|
D|----------------------------------------------------| x2
A|----------------------------------------------------|
D|-15-15-15-15-15\5-5-5-5-5/8-8-8-8-8--8-8-8-8-8-10/--|

e|-----------------------------------------------------------------|
B|-----------------------------------------------------------------|
G|-----------------------------------------------------------------|
D|-----------------------------------------------------------------|
A|-----------------------------------------------------------------|
D|-15-15-15-15-15--15-15-15-15-15--15-15-15-15-15--15-15-15-15-15--|

e|--------------------------------------------------------------------|
B|-----------------------------------------------------------------13-|
G|--------------------------------------------------------------------|
D|--------------------------------------------------------------------|
A|--------------------------------------------------------------------|
D|-15-15-15-15-15--15-15-15-15-15--15-15-15-15-15--15-15-15-15-15-----|

Chorus 2: 
Guitar 1: Plays chorus 1 4x
Guitar 2: Plays chorus 1 16x

Outro:
Guitar 1: Matty strums the 15th fret of the E string in the same rhythm as the chorus until finish 
Guitar 2: Plays chorus 16x
Tap to rate this tab
# A B C D E F G H I J K L M N O P Q R S T U V W X Y Z