Song name
# A B C D E F G H I J K L M N O P Q R S T U V W X Y Z

The Allman Brothers Band - One Way Out tab

                                 One Way Out
                          The Allman Brothers Band
                                 Eat A Peach

Intro:
|------------------------|-----------------------|
|------------------------|-----------------------|
|------------------------|-----------------------|
|-7-7p5---7-5---5-7-7----|--7-7p5---7-5---5------|
|-------7-----7-------0--|--------7-----7---7--0-|
|------------------------|-----------------------| repeat 7 more times

Chorus:
|--------------------------------------------|
|-10-10-10p8---10-8---8-10-10---10-10p8---10-|
|------------9------9-------------------9----|
|--------------------------------------------|
|--------------------------------------------|
|--------------------------------------------|

|------------------------------------------/10-|
|-10-10p8---10-8---8-10-10---10-10p8---10------|
|---------9------9-------------------9---------|
|----------------------------------------------|
|----------------------------------------------|
|----------------------------------------------|

|----------------------------------------------|
|-10-10p8---10-8---8-10-10---10-10p8---10------|
|---------9------9-------------------9---------|
|------------------------------------------7-6-|
|----------------------------------------------|
|----------------------------------------------|

|------------------------------------------/10----|
|-10-10p8---10-8---8-10-10---10-10p8---10------10-|
|---------9------9-------------------9------------|
|-------------------------------------------------|
|-------------------------------------------------|
|-------------------------------------------------|

|----------------------------------------------|
|-10-10p8---10-8---8-10-10---10-10p8---10------|
|---------9------9-------------------9---------|
|------------------------------------------7-6-|
|----------------------------------------------|
|----------------------------------------------|

|-----------------------------------------|
|-10-10p8---10-8---8-10-10---10-10p8---10-|
|---------9------9-------------------9----|
|-----------------------------------------|
|-----------------------------------------|
|-----------------------------------------|

Chords:
          A                 
Ain't but one way out baby, Lord I just can't go out the door.
          D                                                  A
Ain't but one way out baby, and Lord I just can't go out the door.
                E                            
Cause there's a man down there, might be your man I don't know.

Guitar Solo:
|-------8---10b12--12b10p8-------8--------8----10-b-12--8-------|
|-10-10--------------------10-10-----8h10---10------------10-10-|
|---------------------------------------------------------------|
|---------------------------------------------------------------|
|---------------------------------------------------------------|
|---------------------------------------------------------------|

|--------------------------------------------------------------------|
|-8-10p8---8---8-10p8---8-------10-12--10-12-10-12-13p12p10-12p10-10-|
|--------9---9--------9----9/11--------------------------------------|
|--------------------------------------------------------------------|
|--------------------------------------------------------------------|
|--------------------------------------------------------------------|

|--------12--------12-------12----------------------------------------|
|-12b14-----12b14-----12b14-----14b12-10-10--10-12-12b13--10----10-10-|
|------------------------------------------------------------11-------|
|---------------------------------------------------------------------|
|---------------------------------------------------------------------|
|---------------------------------------------------------------------|

|-12b14--12-12b14-12--12b14--12--10-12p10------------------------------------------|
|-----------------------------------------13-----13----13-15-13-15-b17-13----13----|
|---------------------------------------------14----14--------------------14----14-|
|----------------------------------------------------------------------------------|
|----------------------------------------------------------------------------------|
|----------------------------------------------------------------------------------|

|-----------------------------------------------5-8p5---5---5-8p5---5-|
|-8-10p8---8------------------------5-8p5---5-8-------8---8-------8---|
|--------9---9-5h7-5--------5---5-7-------7---------------------------|
|--------------------7--5h7---7---------------------------------------|
|---------------------------------------------------------------------|
|---------------------------------------------------------------------|

|-8b9.5-8--5---5-5--8-5-----------------------------------------|
|------------8----------8-5-------------------------------------|
|---------------------------5-5-------------------4---4---4---4-|
|-------------------------------7--7p5-7---5---4----7---7---7---|
|----------------------------------------7----------------------|
|---------------------------------------------------------------|

|------------------------------------------------8-10b12--12b10p8-10b12-|
|-------------------------------------------8-10------------------------|
|--------4-7-5-----------7b9--7p5------7/9------------------------------|
|-4-7--7--------7p5---7-----------7-7-----------------------------------|
|-------------------7---------------------------------------------------|
|-----------------------------------------------------------------------|

|-10b12-12-12-12-12--12b10p8-10p8--------8--10-10p8-----------------------------|
|---------------------------------10-10-------------10-10-10--8-10p8---8--------|
|--------------------------------------------------------------------9---9-7----|
|-----------------------------------------------------------------------------7-|
|-------------------------------------------------------------------------------|
|-------------------------------------------------------------------------------|


2nd Guitar Solo:

 Guitar 1:
|-------------------------------------------------------------------------|
|-5-8b10--10b8-5--------5-------------------------------------------------|
|----------------7--5-7----5---5------------------------------------------|
|----------------------------7--------------------------------------------|
|-------------------------------------------------------------------------|
|-------------------------------------------------------------------------|
|                                                                         |
|                                                                         |
|                                                                         |
|Guitar 2 (slide guitar):                                                 |
|-----------------------------------17--17\15-----------------------------|
|-------------------------------/17-----------17\15-----------------------|
|---------------------------------------------------17/18-16--14\12----14-|
|-------------------------------------------------------------------14----|
|-------------------------------------------------------------------------|
|-------------------------------------------------------------------------|

 Guitar 1:
|-10b12--8--------8--10b12--8----------------------------------------------|
|----------10-10--------------10-10--10\-----------------------------------|
|--------------------------------------------------------------------------|
|--------------------------------------------------------------------------|
|--------------------------------------------------------------------------|
|--------------------------------------------------------------------------|
|                                                                          |
|                                                                          |
|                                                                          |
|Guitar 2:                                                                 |
|-------------------------------------------9--------9-------9--12-10-9----|
|---------------------------------------/10---10-10----10-10------------10-|
|--------------------------------------------------------------------------|
|--------------------------------------------------------------------------|
|--------------------------------------------------------------------------|
|--------------------------------------------------------------------------|

3rd Solo (slide guitar):
|-----17\15-----17-17----------------------------------------------------|
|-/17-------17--------17-15-/17-17\15\13----/17-15-17--15/17-15/17-15/17-|
|----------------------------------------14------------------------------|
|------------------------------------------------------------------------|
|------------------------------------------------------------------------|
|------------------------------------------------------------------------|

|----/15-17-17\15-------------------------------------17--17\15----19-/-21-|
|-17--------------17----17------------------------/17-----------17---------|
|--------------------17-----12\9-12\9-12-/-14------------------------------|
|--------------------------------------------------------------------------|
|--------------------------------------------------------------------------|
|--------------------------------------------------------------------------|


Outro (slide guitar)
|--/17-17--17-17---------------------------|
|-----------------17\15-17\15--------------|
|-----------------------------17-12-14-14--|
|-----------------------------------14-14--|
|------------------------------------------|
|------------------------------------------|
Tap to rate this tab
 
# A B C D E F G H I J K L M N O P Q R S T U V W X Y Z