Guitaretab - guitar tabs
Song name
# A B C D E F G H I J K L M N O P Q R S T U V W X Y Z

The Allman Brothers Band - No One To Run With tab

Highlighted       Show chord diagrams
-------------------------------------------------------------------------------
		No One to Run With - The Allman Brothers Band
-------------------------------------------------------------------------------
Tabbed by: Dylan Sprayberry
Email:epiphonist13@aol.com

Tuning: Standard

Chords Used:

Intro and Verse:
e|--0-----0-----4---
B|--0-----2-----5---
G|--1-----2-----4---
D|--2-----2-----6---
A|--2-----0-----0---
E|--0-----0-----0---
    E     A     E

Chorus:
e|---2-----2----7---
B|---2-----4----9---
G|---2-----4----9---
D|---4-----4----9---
A|---4-----2----7---
E|---2-----0----0---
    F#m    B    E

Intro: E A E E A E(repeat 3 times)

Verse: Intro Progression
E                                           A E
Everybody wants to know where Jimmy has gone
E                                            A E
He left town, I doubt if hes coming back home
E                                                A E
Well Tony got a job, three kids and a lovely wife
E                                                    A E
Working at the Commerce Bank for the rest of his life

[chorus]
F#m            B           E
Nobody left to run with anymore
F#m            B             E
Nobody left to do the crazy things we used to do before
F#m            B           E
Nobody left to run with anymore
[ Tab from: http://www.guitaretab.com/t/the-allman-brothers-band/94667.html ]
E                                     A E 
Im gonna hit the road, adios my friend
E                                    A E
Go someplace and start all over again
E                                                       A E
Don't know where I'm going, like a gypsy out on the road
E                                          A E
I'll go someplace and join a traveling show

[chorus]
F#m            B           E
Nobody left to run with anymore
F#m            B             E
Nobody wants to do the crazy things we used to do before
F#m            B           E
Nobody left to run with anymore
F#m            B           E
Nobody left to run with anymore
F#m            B           E
Nobody left to run with anymore

Solo: Intro Progression x4
     Chorus Progression x4

E                                         A E
I think Jimmy must have had the right idea
E                                            A E
Packed his stuff and he got right out of here
E                                                 A E
I dont know where hes at but I'm sure that he's ok
E                                         A E
Now I realize what Jimmy was trying to say

[chorus]
F#m            B           E
Nobody left to run with anymore
F#m            B             E
Nobody wants to do the crazy things we used to do before
F#m            B           E
Nobody left to run with anymore
F#m            B           E
Nobody left to run with anymore
F#m            B           E
Nobody left to run with anymore

Outro: Intro Riff


Lead Riff:
e|----12~~~-14-p-12-------------------------12~~~-14-p-12-------------------12~~~-|
B|-------------------14-p-12--14--12-----------------------14-p-12--14--14--------|
G|------------------------------------13~~~---------------------------------------|
D|--------------------------------------------------------------------------------|
A|--------------------------------------------------------------------------------|
E|--------------------------------------------------------------------------------|
Related for No One To Run With tab
No One To Run With chords by The Allman Brothers Band