Song name
# A B C D E F G H I J K L M N O P Q R S T U V W X Y Z

The Allman Brothers Band - Revival tab

Revival
Allman Brothers
Idlewild South


Intro:
     A           A  A               A           E   E   E   A

E||--0---2---2---0--0---2---2-------0---2---2---0---0---0---0-----------|
B||--2---3---3---2--2---3---3-------2---3---3---0---0---0---2-----------|
G||--2---2---2---2--2---2---2-------2---2---2---1---1---1---2-----------|
D||--2---4---4---2--2---4---4-------2---4---4---2---2---2---2-----------|
A||--0---X---X---0--0---X---X-------0---X---X---2---2---2---0-----------|
E||--X---X---X---X--X---X---X-------X---X---X---0---0---0---X-----------|

Guitar 1

E||--------------------------|------------------------|
B||-------------5--8---8/10--|-----------5---8--------|
G||--7p5---------------------|--7p5--------------5h6--|    2X
D||--------7-----------------|-------7----------------|
A||--------------------------|------------------------|
E||--------------------------|------------------------|

E||-------------------------------------5-------------|
B||--10--10--8-----6--6--5-----5--6--8-----5----------|
G||-------------------------------------------4-------|
D||---------------------------------------------------|
A||---------------------------------------------------|
E||---------------------------------------------------|


Guitar 2


E||--------------------|------------------------------|
B||--------------------|------------------------------|
G||----------5--7--9---|----------5--7----------------|    2x
D||--7p5---------------|--7p5-----------7-------------|
A||-------7------------|-------7----------------------|
E||--------------------|------------------------------|

E||---------------------------------------------------|
B||-------------------------------------5-------------|
G||--9--9--7------7--7--5------4--5--7----5-----------|
D||------------------------7------------------2-------|
A||---------------------------------------------------|
E||---------------------------------------------------|


After Intro:

This is the main riff for this part. They may change
it up a little but you should be able to figure it out.
Play so that the G string doesn't sound.

E||----------------------------------------------------------------|
B||--13--15--17-17-17-17-17-17-17---15---13--15--17-17-17-17-15----|
G||----------------------------------------------------------------|   4X
D||--10--12--14-14-14-14-14-14-14---12---10--12--14-14-14-14-12----|
A||----------------------------------------------------------------|
E||----------------------------------------------------------------|


53 seconds:

During this part, there is another guitar playing a lower version of this.
Second time through play note in parenthesis at the end.

E||------------|-------------------------------|-------------------------|
B||-----5-6----|-6-8---5-6-8--5-6-5------------|-----5-------5-----------|
G||--7------7--|---------------------7--5-----5|--7----5--7----5--7------|
D||------------|---------------------------7---|-------------------------|
A||------------|-------------------------------|-------------------------|
E||------------|-------------------------------|-------------------------|

E||------------|---------------------------------------------------------|
B||------------|-6-8---5-6-8--5-6-5------------------5----------(15--/17)|
G||-----5-7-5--|---------------------7--5-----5--7-----5--7--------------|
D||--7---------|---------------------------7------------------7----------|
A||------------|---------------------------------------------------------|
E||------------|---------------------------------------------------------|

After the part above, one guitar moves to a higher version of this and the other plays the same part.


1:21:

E||-14p12------12-----------------------------------|
B||--------14------1412---10------10----------------|
G||----------------------------11------11--9--------|
D||-------------------------------------------11----|
A||-------------------------------------------------|
E||-------------------------------------------------|

E||-----------------------------------------------|
B||-----------------------------------------------|
G||-----------------------------------------------|
D||-----9--11--12p11--9--11--9--------------------|
A||-12---------------------------12--9--12-9------|
E||-------------------------------------------12-9|

After this part, you play the intro chords with one guitar playing this in certain spots:
E||----------|
B||----------|
G||----------|
D||-------7--|
A||--7h9-----|
E||----------|


2:15:

E||----------|--------|---------|------------|
B||----------|--------|---------|----8--10---|
G||----------|------6-|-6h7--9--|-9----------|
D||-------7--|-7h9----|---------|------------|
A||--7h9-----|--------|---------|------------|
E||----------|--------|---------|------------|

E||-5-7-9--|-9-10-12-|-12-15-17-|-17--19--21-|
B||--------|---------|----------|------------|
G||--------|---------|----------|------------|
D||--------|---------|----------|------------|
A||--------|---------|----------|------------|
E||--------|---------|----------|------------|


After this play a series of A,E and D chords. Next, there is a part where each person 
a little on each instrument. There are 2 guitar parts:


1st guitar part (3:02)
E||-----------------------------------------------|
B||-----------------------------------------------|
G||----11-----9-11-9-----9------------------------|
D||-11----11----------11-----119------7---9p7-----|
A||--------------------------------11-------------|
E||-----------------------------------------------|


2nd guitar part (Acoustic, 3:12)
E||------------------------|
B||------------------------|
G||------------------------|
D||------------------------|
A||-0-0--3-5-3--0-3-0------|
E||--------------------3---|

Outro:  Play intro chords


Any questions or comments Matt234501@aol.com
Tap to rate this tab
# A B C D E F G H I J K L M N O P Q R S T U V W X Y Z