Song name
# A B C D E F G H I J K L M N O P Q R S T U V W X Y Z

The Allman Brothers Band - Mountain Jam tab

                          "Mountain Jam"

        play as many times as needed...
E ----------------------------------------10----------------------------------------|
B -----------------------------10--13----------13---10-------------------(10)-------|
G ----/10-10-10--10--10--------------------------------12---10--------10------------|  (riff 1)
D --------------------------------------------------------------------12------------|
A ----------------------------------------------------------------------------------|
E ----------------------------------------------------------------------------------|
       4xs
E-----------------------------------------------------------------------------------|
B---10---8---6--------------------------------------------------------------6-------|
G------------------7---5--------------------------------------------5--7------------| (riff 2)
D---------------------------7----5-7-5---------------------5--7---------------------|
A----------------------------------------8-----5--8-8-8-----------------------------|
E-----------------------------------------------------------------------------------|

         2xs                                                         1x
E-------------------10---8-----------X-------------------10--------------------------|
B----6---8---10--------------10-----X-------6--8--10-------10--8--6--3--5--6--8------|
G-------------------------------------X----------------------------------------------|
D-------------------------------------X----------------------------------------------| (riff 3)
A-------------------------------------X----------------------------------------------|
E-------------------------------------X----------------------------------------------|

riff 1          open
riff 2          4xs
riff 3          1xs
riff 2          4xs
riff 3          1xs
solos          open


Im pretty sure this is the right key. Im not sure how in tune my guitar was when I was learning this. I 
this is helpful to someone. Keep in min...Im not a guitar player. Peace.
Tap to rate this tab
# A B C D E F G H I J K L M N O P Q R S T U V W X Y Z