The Almost - Hand Grenade tab

The Almost

Hand Grenade

This is one of my favorite songs by this band. It is also my all time 
first guitar tab. I know for sure that it is 100% correct so I hope 
you enjoy this tab as much as I did.

Capo 5

Tuning: Standard


Intro & Verses
      F          C         F         F     Em
e|----------------------------------------------|
B|------1----1-----1----1----1---1------1-----1-|
G|------0h2--0-----0----0----0h2-0---0--0--0--0-|
D|----3------3-----0h2--0--3-----3---2--2--2--2-|
A|---------------3------3------------3--3--2--2-|
E|----------------------------------------------|

      F		 C     Em    Am
e|----------------------------------------------|
B|------1----1------1-----1--1------------------|
G|------0h2--0---0--0--0--0--2------------------|
D|----3------3---2--2--2--2--2------------------|
A|---------------3--3--2--2---------------------|
E|----------------------------------------------|


      F          C         F         F     Em
e|----------------------------------------------|
B|------1----1-----1----1----1---1------1-----1-|
G|------0h2--0-----0----0----0h2-0---0--0--0--0-|
D|----3------3-----0h2--0--3-----3---2--2--2--2-|
A|---------------3------3------------3--3--2--2-|
E|----------------------------------------------|

      F		 C     Em    Am		   G
e|-----------------------------------------3----|
B|------1----1------1-----1--1-------------0----|
G|------0h2--0---0--0--0--0--2-------------0----|
D|----3------3---2--2--2--2--2-------------0----|
A|---------------3--3--2--2----------------2----|
E|-----------------------------------------3----|


Chorus
    Am    F     C     G
e|--0-----0-----0-----3---|
B|--1-----1-----1-----0---|
G|--2-----2-----0-----0---|
D|--2-----3-----2-----0---|
A|--0-----0-----3-----2---|
E|--x-----x-----x-----3---|

Play the chorus chords twice and on the second time let the G ring and go back to the verse

I haven't figured out the bridge yet but I will soon and I'll post it A.S.A.P.


By kennyj18
Tap to rate this tab
 
# A B C D E F G H I J K L M N O P Q R S T U V W X Y Z