Song name
# A B C D E F G H I J K L M N O P Q R S T U V W X Y Z

The Almost - Little Drummer Boy chords

Highlighted       Show chord diagrams
its not that hard,
i got it from this video:
http://www.youtube.com/watch?v=MNRMSdKcaTA

intro

  G     Em9    C9
--3------3------3--------|
--3------3------3--------|
--0------0------0--------| x2
--0------2------2--------|
--2------2------3--------|
--3------0------x--------|

verse

  G    C9     G
--3-----3-----3-----|
--3-----3-----3-----|
--0-----0-----0-----| x2
--0-----2-----0-----|
--2-----3-----2-----|
--3-----x-----3-----|


 Em9     C9    G   C9   D
--3-------3----3----3---2-------|
--3-------3----3----3---3-------|
--0-------0----0----0---2-------|
--2-------2----0----2---0-------|
--2-------3----2----3---0-------|
--0-------x----3----x---x-------|

Chorus

   G    C9     G    C9
---3-----3-----3-----3-------------------------|
---3-----3-----3-----3-------------------------|
---0-----0-----0-----0-------------------------|
---0-----2-----0-----2-------------------------|
---2-----3-----2-----3-------------------------|
---3-----x-----3-----x-------------------------|


intro
verse
chorus
intro
verse
chorus
intro
verse
chorus
Tap to rate this tab
# A B C D E F G H I J K L M N O P Q R S T U V W X Y Z