Song name
# A B C D E F G H I J K L M N O P Q R S T U V W X Y Z

The Almost - Say This Sooner No One Will Ever See Things The Way I Do tab

Help us improve GuitareTab! Take a short survey!
-------------------------------------------------------------------------------
                    Say This Sooner - The Almost
-------------------------------------------------------------------------------

Tuning: Drop D

Intro: 

e|----|
B|----|
G|-2--| Play multiple times (acoustic)
D|-2--|
A|-2--|
D|-2--|
   x

Guitar 1                     
e|-------------------|
B|-------------------|
G|-------------------|
D|-222--555--000-0-0-|
A|-222--555--000-0-0-|
D|-222--555--000-0-0-| x4

Guitar 2 
e|-------------------|
B|-------------------|
G|-12--11--14--------|
D|-x---x---x---------| x2
A|-10--9---12--------|
D|-------------------|

Verse:

e|----|
B|----|
G|-2--| Play multiple times (acoustic)  
D|-2--| 
A|-2--|   
D|-2--|
   x
e|------|
B|------|
G|-222--|  
D|-222--|
A|-222--|
D|-222--|

e|----|
B|----|
G|-2--| Play multiple times (acoustic)  
D|-2--|
A|-2--|
D|-2--|
   x

w/Distortion
   
e|---------------------------------|
B|---------------------------------|
G|---------------------------------|
D|-2-00000-5-00000-0-000000000000--|
A|-2-00000-5-00000-0-000000000000--|
D|-2-00000-5-00000-0-000000000000--| x3
     xxxxx   xxxxx   xxxxxxxxxxxx 

e|---------|
B|---------|
G|---------|
D|-2--5--0-|
A|-2--5--0-|
D|-2--5--0-| 

Chorus: (Here are the chords, figure out how much times you strum each.)

e|-----------|
B|-----------|
G|-----------|
D|-12-9-2-5--|
A|-10-7-2-5--|
D|-10-7-2-5--|

e|--------|
B|--------|
G|--------|
D|-12-9-2-|
A|-10-7-2-|
D|-10-7-2-|

e|-----------|
B|-----------|
G|-----------|
D|-12-9-2-5--|
A|-10-7-2-5--|
D|-10-7-2-5--|

e|-------|
B|-------|
G|-------|
D|-12-9--|
A|-10-7--|
D|-10-7--|

e|-------|
B|-------|
G|-------|
D|-2-5-0-|
A|-2-5-0-| x2
D|-2-5-0-|


Repeat Verse



Chorus: (Here are the chords, figure out how much times you strum each.)

e|-----------|
B|-----------|
G|-----------|
D|-12-9-2-5--|
A|-10-7-2-5--|
D|-10-7-2-5--|

e|--------|
B|--------|
G|--------|
D|-12-9-2-|
A|-10-7-2-|
D|-10-7-2-|

e|-----------|
B|-----------|
G|-----------|
D|-12-9-2-5--|
A|-10-7-2-5--|
D|-10-7-2-5--|

e|-------|
B|-------|
G|-------|
D|-12-9--|
A|-10-7--|
D|-10-7--|

e|--------------|
B|--------------|
G|--------------|
D|-0-0-22-2222--|
A|-0-0-22-2222--| x4
D|-0-0-22-2222--|

Breakdown:

Guitar 1

e|-------|
B|-------|
G|-------|
D|-0-2-2-|
A|-0-2-2-| x8
D|-0-2-2-|

e|---|
B|---|
G|---|
D|-0-|
A|-0-| 
D|-0-|

Guitar 2

e|----|
B|----|
G|-12-| 
D|-x--|Play multiple times while guitar 1 plays the breakdown.
A|-10-| 
D|----|

Outro:  Same as the second chorus.

There is an acoustic part but I haven't figured it out so this should get you started.


   
Related for Say This Sooner No One Will Ever See Things The Way I Do tab