Song name
# A B C D E F G H I J K L M N O P Q R S T U V W X Y Z

The Almost - Free Fallin tab

From the Punk Goes Classic Rock Cd.
billythekiddd6@yahoo.com
standard tuning


Intro 

w/ only drums fiddle around with this like twice
e|-12-12-12-11-11-11-11-11--7-7-7--4-4-4-4/5-4-------------------------------|
B|---------------------------------------------------------------------------|
G|---------------------------------------------------------------------------|
D|---------------------------------------------------------------------------|
A|---------------------------------------------------------------------------|
E|---------------------------------------------------------------------------|


Intro (with everything)
e|----------------------------------------------------------------------|  x4
B|---9-9-9-10-10-10-10-10---10-9-7-7-7-7------------------------------------|
G|---9-9-9--9--9--9--9--9----9-9-9-9-9-9------------------------------------|
D|--------------------------------------------------------------------------|
A|--------------------------------------------------------------------------|
E|--------------------------------------------------------------------------|

second two measures 2nd guitar come in with
e|----------------------------------------------------------------------|  x2
B|--------------------------------------------------------------------------|
G|--13-13-13--14-14-14-14-14---14--13--11-11-11-----------------------------|
D|---x--x--x---x--x--x--x--x----x---x--x-x-x-x------------------------------|
A|--11-11-11--12-12-12-12-12---12--11--9-9-9-9------------------------------|
E|--------------------------------------------------------------------------|

rhythm guitar plays
e|----------------------------------------------------------------------|  x4
B|---------------------------------------------------------------------------|
G|---------------------------------------------------------------------------|
D|-2-2-2--7-7-7-7-7--7-6-4-4-4-4---------------------------------------------|
A|-2-2-2--7-7-7-7-7--7-6-4-4-4-4---------------------------------------------|
E|-0-0-0--5-5-5-5-5--5-4-2-2-2-2---------------------------------------------|




Verse


e|----------------------------------------------------------------------|  x4
B|---------------------------------------------------------------------------|
G|---------------------------------------------------------------------------|
D|-2-2-2--7-7-7-7-7--7-6-4-4-4-4---------------------------------------------|
A|-2-2-2--7-7-7-7-7--7-6-4-4-4-4---------------------------------------------|
E|-0-0-0--5-5-5-5-5--5-4-2-2-2-2---------------------------------------------|
PM .............................

second two measures
e|----------------------------------------------------------------------|  x8
B|---------------------------------------------------------------------------|
G|--------11--9-------11--9--------------------------------------------------|
D|-----9-----------9---------------------------------------------------------|
A|--7-----------7------------------------------------------------------------|
E|---------------------------------------------------------------------------|




Prechorus (YYeaahhh!)


same as intro mostly
e|----------------------------------------------------------------------|  x2
B|---9-9-9-10-10-10-10-10---10-9-7-7-7-7------------------------------------|
G|---9-9-9--9--9--9--9--9----9-9-9-9-9-9------------------------------------|
D|--------------------------------------------------------------------------|
A|--------------------------------------------------------------------------|
E|--------------------------------------------------------------------------|


e|----------------------------------------------------------------------|  x2
B|--------------------------------------------------------------------------|
G|--13-13-13--14-14-14-14-14---14--13--11-11-11-----------------------------|
D|---x--x--x---x--x--x--x--x----x---x--x-x-x-x------------------------------|
A|--11-11-11--12-12-12-12-12---12--11--9-9-9-9------------------------------|
E|--------------------------------------------------------------------------|


e|----------------------------------------------------------------------|  x2
B|---------------------------------------------------------------------------|
G|---------------------------------------------------------------------------|
D|-2-2-2--7-7-7-7-7--7-6-4-4-4-4---------------------------------------------|
A|-2-2-2--7-7-7-7-7--7-6-4-4-4-4---------------------------------------------|
E|-0-0-0--5-5-5-5-5--5-4-2-2-2-2---------------------------------------------|



Verse


e|----------------------------------------------------------------------|  x4
B|---------------------------------------------------------------------------|
G|---------------------------------------------------------------------------|
D|-2-2-2--7-7-7-7-7--7-6-4-4-4-4---------------------------------------------|
A|-2-2-2--7-7-7-7-7--7-6-4-4-4-4---------------------------------------------|
E|-0-0-0--5-5-5-5-5--5-4-2-2-2-2---------------------------------------------|
PM .............................

second two measures
e|----------------------------------------------------------------------|  x8
B|---------------------------------------------------------------------------|
G|--------11--9-------11--9--------------------------------------------------|
D|-----9-----------9---------------------------------------------------------|
A|--7-----------7------------------------------------------------------------|
E|---------------------------------------------------------------------------|



Chorus 

e|----------------------------------------------------------------------|  x4
B|---9-9-9-10-10-10-10-10---10-9-7-7-7-7------------------------------------|
G|---9-9-9--9--9--9--9--9----9-9-9-9-9-9------------------------------------|
D|--------------------------------------------------------------------------|
A|--------------------------------------------------------------------------|
E|--------------------------------------------------------------------------|


e|----------------------------------------------------------------------|  x4
B|---------------------------------------------------------------------------|
G|---------------------------------------------------------------------------|
D|-2-2-2--7-7-7-7-7--7-6-4-4-4-4---------------------------------------------|
A|-2-2-2--7-7-7-7-7--7-6-4-4-4-4---------------------------------------------|
E|-0-0-0--5-5-5-5-5--5-4-2-2-2-2---------------------------------------------|


then Verse, NO Prechorus, Chorus

Bridge:

this bunch of times
e|--------------------------------------------------------------------------| 
B|--------------------------------------------------------------------------|
G|--------------------------------------------------------------------------|
D|--------------------------------------------------------------------------|
A|--------------------------------------------------------------------------|
E|-0-0-0-5-5-5-5-5--5-4-2-2-2-2---------------------------------------------|
PM ............................

this like every other time and let ring for a measure
e|--------------------------------------------------------------------------|
B|--------------------------------------------------------------------------|
G|--------------------------------------------------------------------------|
D|--------------------------------------------------------------------------|
A|--------------------------------------------------------------------------|
E|------------------4~-4~-2~-0h2-0~-----------------------------------------|

this comes in with the words like 4 measures in
e|----------------------------------------------------------------------|  x4
B|--------------------------------------------------------------------------|
G|--------11--9-------11--9-------11--9-------9/11/9------------------------|
D|-----9-----------9-----------9-----------9--------------------------------|
A|--7-----------7-----------7-----------7-----------------------------------|
E|--------------------------------------------------------------------------|


then play with the palm muting here
e|---------------------------------------------------------------------------|
B|---------------------------------------------------------------------------|
G|---------------------------------------------------------------------------|
D|-2-2-2--7-7-7-7-7--7-6-4-4-4-4---------------------------------------------|
A|-2-2-2--7-7-7-7-7--7-6-4-4-4-4---------------------------------------------|
E|-0-0-0--5-5-5-5-5--5-4-2-2-2-2---------------------------------------------|
PM .............................

then Chorus and thats it

enjoy!

Tap to rate this tab
# A B C D E F G H I J K L M N O P Q R S T U V W X Y Z