Song name
# A B C D E F G H I J K L M N O P Q R S T U V W X Y Z

The Almost - Say This Sooner tab

The Almost
Say this sooner
Southern Weather

My 1st tab. mofro230@hotmail.com
Drop D.

-Intro-
e--------------------------------------------------------|
B--------------------------------------------------------|
G--------------------------------------------------------|
D-222----555----000--0-0-0-------------------------------|
A-222----555----000--0-0-0-------------------------------|
E-222----555----000--0-0-0-------------------------------|x2

-String scratches-
Fill in the rest for your self its easy just repeating itself and diff intervals basically.





(Chorus)
e--------------------------------------------------------|
B--------------------------------------------------------|
G--------------------------------------------------------|
D-101010--777--121212--555-------------------------------|
A-101010--777--121212--555-------------------------------|
E-101010--777--121212--555-------------------------------|x2
(This sounds a lil off I think but closest I'm able to get sorry.)




(Heres the little build up part case you have trouble trying to figure it.)

e----------------------------------------------------------|
B----------------------------------------------------------|
G-0--22222222-0~-------------------------------------------|
D-0--22222222-0~-------------------------------------------|
A-0--22222222-0~-------------------------------------------|

Simple and fun.
Comment if you want more.
Tap to rate this tab
 
# A B C D E F G H I J K L M N O P Q R S T U V W X Y Z