Song name
# A B C D E F G H I J K L M N O P Q R S T U V W X Y Z

The Almost - Stop It tab

Artist: The Almost
Song: Stop It!
Album: Southern Weather
Tabbed By: Matt Florio; myspace.com/mattflorio2
Email: Shempashland@yahoo.com

This is the correct way of playing the song "Stop It" by The Almost.
Southern Weather is an amazing album check it out!
I've seen Aaron play this song this way.
enjoy!

Intro
e|-------------------------00000--|
b|-------------------------00000--|
g|--5-5-54-5-5-5544--5555--22222--|
d|--5-5-55-5-5-5555--5555--11111--|
a|--0-0-00-0-0-0000--xxxx--22222--|
d|-------------------5555---------|

Verse
*the first chord could either be an Am (x022100) or x05530
**also the second chord.. slide the base note (the dropped d) towards the first fret
e|--0---------------|
b|--0-------00000---|
g|--5-------22222---|
d|--5-5-----11111---|
a|--0-5-----22222---|
d|----5/(1)---------|
"seems like everytime..."

Chorus
e|-----------00000000-00000000-00000000--|
b|-----------33333333-33333333-33333333--|
g|-----------22222222-00000000-00000000--|
d|--55555555-00000000-22222222-xxxxxxxx--|
a|--55555555-00000000-22222222-33333333--|
d|--55555555-00000000-22222222-----------|

Intro
Verse

Pre Chorus 
*this only comes in after the second verse
e|------------0--|
b|--3--5------0--|
g|--0--0------2--|
d|--0--4---1--1--|
a|--3--5--2-2-2--|
d|---------------|
"you know just what to do.."

Chorus

Bridge
e|--0-0-0--0-0-00-0-0-0-0-|
b|--3-3-3--3-3-33-3-3-3-3-|
g|--0-2-0--0-2-00-0-0-0-0-|
d|--2-0-x--2-0-xx-x-x-x-x-|
a|--2-0-3--2-0-33p2h3p2h3-|
d|--2-0----2-0------------|
"Its true Ive failed.."

Chorus

Outro
e|--00-00-0~---|
b|--00-00-0~---|
g|--22-22-2~---|
d|--11-11-1~---|
a|--22-22-2~---|
d|-------------|
Tap to rate this tab
 
# A B C D E F G H I J K L M N O P Q R S T U V W X Y Z