Song name
# A B C D E F G H I J K L M N O P Q R S T U V W X Y Z

The Asteroids Galaxy Tour - The Sun Aint Shining No More tab

Highlighted       Show chord diagrams
-------------------------------------------------------------------------------
          THE SUN AIN'T SHINING NO MORE - The Asteroids Galaxy Tour
-------------------------------------------------------------------------------

Tabbed by: Stardog
Email: st4rdog@gmail.com

            (A#)
   Cm  Dm7   Bb   G
e|-3----5----6----3-|
B|-4----6----6----3-|
G|-5----5----7----4-|
D|-5----7----8----5-|
A|-3----5----8----5-|
E|-3----5----6----3-|

OR

C7sus4 instead of Dm7 - 363533 (move pinky from Cm to 6th fret B string)

----------

Cm Cm, Dm7, Cm Cm, Dm7, Cm Cm, Dm7, Bb Bb, G G

Repeat this for the entire song, including chorus.

----------
Tap to rate this tab
 
# A B C D E F G H I J K L M N O P Q R S T U V W X Y Z