Song name
# A B C D E F G H I J K L M N O P Q R S T U V W X Y Z

The Automatic - Night Drive tab

-------------------------------------------------------------------------------
			     Night Drive - The automatic
-------------------------------------------------------------------------------
Tabbed by:t00re
Email: i_love_beth.s@hotmail.com

Tuning:Standard

Intro
e|---------2-------------------------2---------------2------------|
B|-----2-----2---2------6b7------2-----2---2-----2------4---------|
G|---3---3-----3--------6b7----3---3-----3-----3---3--------------|
D|-4---------------3--3------4---------------4--------------------|
A|----------------------------------------------------------------|
E|----------------------------------------------------------------|

| b  bend
| /  slide up
| \  slide down
| h  hammer-on
| p  pull-off
| ~  vibrato
| +  harmonic
| x  Mute note
===============================================================================
Tap to rate this tab
# A B C D E F G H I J K L M N O P Q R S T U V W X Y Z