Song name
# A B C D E F G H I J K L M N O P Q R S T U V W X Y Z

The Automatic - Bad Guy tab

Tabbed by: AHT
Solo: 02:17-02:29

E------------------------------------------------------| 
B------------------------------------------------------|
G------------------------------------------------------| 
D--0-0-3-0-5-3-3-3--0-0-3-0-5-3-3-3--0-0-3-0-5-3-3-3---|
A------------------------------------------------------|
E------------------------------------------------------|

E------------------------------------------------------| 
B------------------------------------------------------|
G------------------------------------------------------| 
D--0-0-3-0-5-3-----------------------------------------|
A------------------------------------------------------|
E------------------------------------------------------|

E------------------------------------------------------| 
B--------6---8-6---------------------------------------|
G--5/7-7---7-------------------------------------------| 
D------------------------------------------------------|
A------------------------------------------------------|
E------------------------------------------------------|

E------------------------------------------------------| 
B------6---8-6-----------------------------------------|
G--7-7---7---------------------------------------------| 
D------------------------------------------------------|
A------------------------------------------------------|
E------------------------------------------------------|

E------------------------------------------------------| 
B------6---8b-9b-8b-9b-8b-6---6------------------------|
G--7-7---7------------------7---7----------------------| 
D------------------------------------------------------|
A------------------------------------------------------|
E------------------------------------------------------|


Tap to rate this tab
# A B C D E F G H I J K L M N O P Q R S T U V W X Y Z