Guitaretab - guitar tabs
Song name
# A B C D E F G H I J K L M N O P Q R S T U V W X Y Z

The Automatic - Thats What She Said tab

Artist: The Automatic
Song: Thats What She Said
Album: Not Accepted Anywhere
Tuning: Standard
Tabbed By James Morris
Date: 22.06.06

Intro
E|---------------------------|
B|---------------------------|
G|-xx-11~-------13~----------|
D|-xx-----13-11-----13-11----|
A|-xx---------------------11-|
E|---------------------------|

Verse
‘Buck up your actions, pack up your batteries...’
E|-----------------------------------------|
B|-----------------------------------------|
G|------------------11~-------13~----------|
D|----------------------13-11-----13-11----|
A|--------------------------------------11-|
E|-----------------------------------------|

Pre Chorus
‘is anyone thinking anything at all, is anyone thinkin anything at all’
E|-----------------------------------------------------------------|
B|-----------------------------------------------------------------|
G|-3-3-3-3-3-3-3-3-3-3-3-3-3-3-3-3-4-4-4-4-4-4-4-4-4-4-4-4-4-4-4-4-|
D|-3-3-3-3-3-3-3-3-3-3-3-3-3-3-3-3-4-4-4-4-4-4-4-4-4-4-4-4-4-4-4-4-|
A|-1-1-1-1-1-1-1-1-1-1-1-1-1-1-1-1-2-2-2-2-2-2-2-2-2-2-2-2-2-2-2-2-|
E|-----------------------------------------------------------------|
‘is anyone thinking anything at all’
E|---------------------------------|
B|---------------------------------|
G|-6-6-6-6-6-6-6-6-6-6-6-6-6-6-6-6-|
D|-6-6-6-6-6-6-6-6-6-6-6-6-6-6-6-6-|
A|-4-4-4-4-4-4-4-4-4-4-4-4-4-4-4-4-|
E|---------------------------------|
    ‘is anyone thinking anything at all?’
E|-------------------------------------------------|
B|-------------------------------------------------|
G|-13-11-11-13-13-11-11-13-13-11-11-13-13-11-11-13-|
D|-13-13-13-13-13-13-13-13-13-13-13-13-13-13-13-13-|
A|-11-11-11-11-11-11-11-11-11-11-11-11-11-11-11-11-|
E|-------------------------------------------------|

Chorus
‘I know I had, something to say, it lost the meaning and it faded away’
E|-----------------------------------------------------------------|
B|-----------------------------------------------------------------|
G|-3-3-3-3-3-3-3-3-3-3-3-3-3-3-3-3-4-4-4-4-4-4-4-4-4-4-4-4-4-4-4-4-|
D|-3-3-3-3-3-3-3-3-3-3-3-3-3-3-3-3-4-4-4-4-4-4-4-4-4-4-4-4-4-4-4-4-|
A|-1-1-1-1-1-1-1-1-1-1-1-1-1-1-1-1-2-2-2-2-2-2-2-2-2-2-2-2-2-2-2-2-|
E|-----------------------------------------------------------------|
‘I know I had, something to say, it lost the meaning and it faded away’
E|-----------------------------------------------------------------|
B|-----------------------------------------------------------------|
G|-6-6-6-6-6-6-6-6-6-6-6-6-6-6-6-6-8-8-8-8-8-8-8-8-8-8-8-8-8-8-8-8-|
D|-6-6-6-6-6-6-6-6-6-6-6-6-6-6-6-6-8-8-8-8-8-8-8-8-8-8-8-8-8-8-8-8-|
A|-4-4-4-4-4-4-4-4-4-4-4-4-4-4-4-4-6-6-6-6-6-6-6-6-6-6-6-6-6-6-6-6-|
E|-----------------------------------------------------------------|
(only a slight bend)
E|-----------------|
B|-----------------|
G|-13bu------------|
D|-13bu—-BASS FILL-|
A|-11bu------------|
E|-----------------|

Synth Plays this throught chorus
G|-11------11------11------13-11-|
D|----13------13------13---------|

Verse 2
Fill 1
E|--------------------------|
B|--------------------------|
G|-6--6-6--6-6-6/8-8-8-11\~-|
D|-x--x-x--x-x-x/x-x-x--x\~-|
A|-4--4-4--4-4-4/6-6-6--9\~-|
E|--------------------------|

Fill 2
E|------------------------------|
B|------------------------------|
G|-11-11-11--11-11-11-13-13-11/-|
D|--x--x--x---x--x--x--x--x--x/-|
A|--9--x--9---9--9--9-11-11--9/-|
E|------------------------------|

Fill 3
E|--------------------------|
B|--------------------------|
G|-6--6-6--6-6-6/8-8-8-11\~-|
D|-x--x-x--x-x-x/x-x-x--x\~-|
A|-4--4-4--4-4-4/6-6-6--9\~-|
E|--------------------------|

Fill 4
E|---------------------------|
B|---------------------------|
G|-11-11-11-11-6---6---6---6-|
D|--x--x--x--x-x---x---x---x-|
A|--9--9--9--9-4---4---4---4-|
E|---------------------------|
Then back to
E|-----------------------------------------|
B|-----------------------------------------|
G|------------------11~-------13~----------|
D|----------------------13-11-----13-11----|
A|--------------------------------------11-|
E|-----------------------------------------|

Pre Chorus
‘is anyone thinking anything at all, is anyone thinkin anything at all’
E|-----------------------------------------------------------------|
B|-----------------------------------------------------------------|
G|-3-3-3-3-3-3-3-3-3-3-3-3-3-3-3-3-4-4-4-4-4-4-4-4-4-4-4-4-4-4-4-4-|
D|-3-3-3-3-3-3-3-3-3-3-3-3-3-3-3-3-4-4-4-4-4-4-4-4-4-4-4-4-4-4-4-4-|
A|-1-1-1-1-1-1-1-1-1-1-1-1-1-1-1-1-2-2-2-2-2-2-2-2-2-2-2-2-2-2-2-2-|
E|-----------------------------------------------------------------|
‘is anyone thinking anything at all’
E|---------------------------------|
B|---------------------------------|
G|-6-6-6-6-6-6-6-6-6-6-6-6-6-6-6-6-|
D|-6-6-6-6-6-6-6-6-6-6-6-6-6-6-6-6-|
A|-4-4-4-4-4-4-4-4-4-4-4-4-4-4-4-4-|
E|---------------------------------|
    ‘is anyone thinking anything at all?’
E|-------------------------------------------------|
B|-------------------------------------------------|
G|-13-11-11-13-13-11-11-13-13-11-11-13-13-11-11-13-|
D|-13-13-13-13-13-13-13-13-13-13-13-13-13-13-13-13-|
A|-11-11-11-11-11-11-11-11-11-11-11-11-11-11-11-11-|
E|-------------------------------------------------|
[ Tab from: http://www.guitaretab.com/t/the-automatic/145121.html ]
Chorus
‘I know I had, something to say, it lost the meaning and it faded away’
E|-----------------------------------------------------------------|
B|-----------------------------------------------------------------|
G|-3-3-3-3-3-3-3-3-3-3-3-3-3-3-3-3-4-4-4-4-4-4-4-4-4-4-4-4-4-4-4-4-|
D|-3-3-3-3-3-3-3-3-3-3-3-3-3-3-3-3-4-4-4-4-4-4-4-4-4-4-4-4-4-4-4-4-|
A|-1-1-1-1-1-1-1-1-1-1-1-1-1-1-1-1-2-2-2-2-2-2-2-2-2-2-2-2-2-2-2-2-|
E|-----------------------------------------------------------------|
‘I know I had, something to say, it lost the meaning and it faded away’
E|-----------------------------------------------------------------|
B|-----------------------------------------------------------------|
G|-6-6-6-6-6-6-6-6-6-6-6-6-6-6-6-6-8-8-8-8-8-8-8-8-8-8-8-8-8-8-8-8-|
D|-6-6-6-6-6-6-6-6-6-6-6-6-6-6-6-6-8-8-8-8-8-8-8-8-8-8-8-8-8-8-8-8-|
A|-4-4-4-4-4-4-4-4-4-4-4-4-4-4-4-4-6-6-6-6-6-6-6-6-6-6-6-6-6-6-6-6-|
E|-----------------------------------------------------------------|
‘I know I had, something to say, it lost the meaning and it faded away’
E|-----------------------------------------------------------------|
B|-----------------------------------------------------------------|
G|-3-3-3-3-3-3-3-3-3-3-3-3-3-3-3-3-4-4-4-4-4-4-4-4-4-4-4-4-4-4-4-4-|
D|-3-3-3-3-3-3-3-3-3-3-3-3-3-3-3-3-4-4-4-4-4-4-4-4-4-4-4-4-4-4-4-4-|
A|-1-1-1-1-1-1-1-1-1-1-1-1-1-1-1-1-2-2-2-2-2-2-2-2-2-2-2-2-2-2-2-2-|
E|-----------------------------------------------------------------|
‘I know I had, something to say, 
E|---------------------------------|
B|---------------------------------|
G|-6-6-6-6-6-6-6-6-6-6-6-6-6-6-6-6-|
D|-6-6-6-6-6-6-6-6-6-6-6-6-6-6-6-6-|
A|-4-4-4-4-4-4-4-4-4-4-4-4-4-4-4-4-|
E|---------------------------------|
    it lost the meaning and it faded away’
E|-------------------------------------------------|
B|-------------------------------------------------|
G|-13-11-11-13-13-11-11-13-13-11-11-13-13-11-11-13-|
D|-13-13-13-13-13-13-13-13-13-13-13-13-13-13-13-13-|
A|-11-11-11-11-11-11-11-11-11-11-11-11-11-11-11-11-|
E|-------------------------------------------------|

Bridge
E|-------------------------------------------------------|
B|-------------------------------------------------------|
G|-13-11-11-13-13-11-11-13-13-11-11-13-13-11-11-13~~-----|
D|-13-13-13-13-13-13-13-13-13-13-13-13-13-13-13-13~~-----|
A|-11-11-11-11-11-11-11-11-11-11-11-11-11-11-11-11~~-----|
E|-------------------------------------------------------|

E|-------------------------------------------------|
B|-------------------------------------------------|
G|-13-11-11-13-13-11-11-13-13-11-11-13-13-11-11-13-|
D|-13-13-13-13-13-13-13-13-13-13-13-13-13-13-13-13-|
A|-11-11-11-11-11-11-11-11-11-11-11-11-11-11-11-11-|
E|-------------------------------------------------|

Riff
E|---------------------------------|
B|---------------------------------|
G|---------------------------------|
D|---------------------------------|
A|-6-4-4-6-6-4-4-6-6-4-4-8-8-4-4-6-|
E|-4-2-2-4-4-2-2-4-4-2-2-6-6-2-2-4-|

Chorus
‘I know I had, something to say, it lost the meaning and it faded away’
E|-----------------------------------------------------------------|
B|-----------------------------------------------------------------|
G|-3-3-3-3-3-3-3-3-3-3-3-3-3-3-3-3-4-4-4-4-4-4-4-4-4-4-4-4-4-4-4-4-|
D|-3-3-3-3-3-3-3-3-3-3-3-3-3-3-3-3-4-4-4-4-4-4-4-4-4-4-4-4-4-4-4-4-|
A|-1-1-1-1-1-1-1-1-1-1-1-1-1-1-1-1-2-2-2-2-2-2-2-2-2-2-2-2-2-2-2-2-|
E|-----------------------------------------------------------------|
‘I know I had, something to say, it lost the meaning and it faded away’
E|-----------------------------------------------------------------|
B|-----------------------------------------------------------------|
G|-6-6-6-6-6-6-6-6-6-6-6-6-6-6-6-6-8-8-8-8-8-8-8-8-8-8-8-8-8-8-8-8-|
D|-6-6-6-6-6-6-6-6-6-6-6-6-6-6-6-6-8-8-8-8-8-8-8-8-8-8-8-8-8-8-8-8-|
A|-4-4-4-4-4-4-4-4-4-4-4-4-4-4-4-4-6-6-6-6-6-6-6-6-6-6-6-6-6-6-6-6-|
E|-----------------------------------------------------------------|
‘I know I had, something to say, it lost the meaning and it faded away’
E|-----------------------------------------------------------------|
B|-----------------------------------------------------------------|
G|-3-3-3-3-3-3-3-3-3-3-3-3-3-3-3-3-4-4-4-4-4-4-4-4-4-4-4-4-4-4-4-4-|
D|-3-3-3-3-3-3-3-3-3-3-3-3-3-3-3-3-4-4-4-4-4-4-4-4-4-4-4-4-4-4-4-4-|
A|-1-1-1-1-1-1-1-1-1-1-1-1-1-1-1-1-2-2-2-2-2-2-2-2-2-2-2-2-2-2-2-2-|
E|-----------------------------------------------------------------|
‘I know I had, something to say, 
E|---------------------------------|
B|---------------------------------|
G|-6-6-6-6-6-6-6-6-6-6-6-6-6-6-6-6-|
D|-6-6-6-6-6-6-6-6-6-6-6-6-6-6-6-6-|
A|-4-4-4-4-4-4-4-4-4-4-4-4-4-4-4-4-|
E|---------------------------------|
    it lost the meaning and it faded away’
E|-------------------------------------------------|
B|-------------------------------------------------|
G|-13-11-11-13-13-11-11-13-13-11-11-13-13-11-11-13-|
D|-13-13-13-13-13-13-13-13-13-13-13-13-13-13-13-13-|
A|-11-11-11-11-11-11-11-11-11-11-11-11-11-11-11-11-|
E|-------------------------------------------------|

Outro
Guitar 1
E|---------------------------------------------------------|
B|---------------------------------------------------------|
G|-13-11-11-13-13-11-11-13-13-11-11-13-13-11-11-13~~~~~~~~-|
D|-13-13-13-13-13-13-13-13-13-13-13-13-13-13-13-13~~~~~~~~-|
A|-11-11-11-11-11-11-11-11-11-11-11-11-11-11-11-11~~~~~~~~-|
E|---------------------------------------------------------|
Guitar 2
E|------------------------------------|
B|------------------------------------|
G|------------------------------------|
D|------------------------------------|
A|-6-4-4-6-6-4-4-6-6-4-4-8-8-4-4-6~~~-|
E|-4-2-2-4-4-2-2-4-4-2-2-6-6-2-2-4~~~-|

That’s it. Please rate, comment and if neccassary, correct. Thanks.
Enjoy




Related for Thats What She Said tab