Song name
# A B C D E F G H I J K L M N O P Q R S T U V W X Y Z

The Beatles - Michelle chords

Highlighted       Show chord diagrams
Using a capo on the 3rd fret, just like Paul McCartney on the original version. This is 
a version to someone who wants a feeling of similarity or even equality to the song in 
his own hands.
Thanks,
Joseph G. Grandson
Capo 3rd Fret
-------------------------
Chords Used in This Song:
D Gm C Ddim A Dm F5 
Bb A7

Intro:
1|------5-----5-----5-----5-----5-----3-5----|
2|------6-----6-----6-----6-----6-----3-5----|
3|--7-----6-----5-----4-----3------3----6----|
4|--------------------------------------7----|
5|--------------------------------------7----|
6|--------------------------------------5----|

D       Gm
Michelle, ma belle
C                  Ddim         A    Ddim       A
these are words that go together well, my Michelle
D       Gm
Michelle ma belle,
C                 Ddim                A
sont les mots qui vont tres bien ensemble
Ddim           A
tres bien ensemble
Dm
I love you, I love you, I love you
F5                      Bb
thatŽs all I want to say
A7               Dm
until I find the way

(Intro)
I will say the only words I know that youŽll understand

Michelle ma belle
sont les mots qui vont tres bien ensemble
tres bien ensmble

I need you, I need you, I need you
I need to make you see
what you mean to me
until I do, IŽm hoping you will know what I mean
I love you

Solo:
|--------------------------------------------------------|
|--------------------------------------------------------|
|----------0-2-3--------0-------------------------0-1-2--|
|--0-0-2-3------3--2-2-3-2-0-0-2-3-0---3----0-2-3--------|
|-----------------------------------4-3-3-4--------------|
|--------------------------------------------------------|

I want you, I want you, I want you
I think you know by now,
IŽll get to you somehow,
until I do IŽm telling you, so youŽll understand

Michelle, ma belle
sont les mots qui vont tres bien ensemble
tres bien ensemble
(intro)
I will say the only words I know that youŽll understand
My Michelle.
(solo)
Tap to rate this tab
# A B C D E F G H I J K L M N O P Q R S T U V W X Y Z