Song name
# A B C D E F G H I J K L M N O P Q R S T U V W X Y Z

The Black Angels - Young Men Dead tab

Intro and main riff to "Young Men Dead."

Maybe.

E|-------------------------------------------------------------------|
B|-------------------------------------------------------------------|
G|-------------------------------------------------------------------|
D|-----------3b---------------------3b-------------------------------|
A|-3-4-5-5-5----5-0-3-5-3-0-3-5-5-5----5-----------------------------|
e|-------------------------------------------------------------------|

E|-------------------------------------------------------------------|
B|-------------------------------------------------------------------|
G|-------------------------------------------------------------------|
D|-----------3b---------------------3b-------------------------------|
A|-3-4-5-5-5----5-0-3-5-3-0-3-5-5-5----5-3-0-0-3-5-------------------|
e|-------------------------------------------------------------------|
Tap to rate this tab
# A B C D E F G H I J K L M N O P Q R S T U V W X Y Z