The Black Pacific - The System tab

-----------------------------------------------------------------------------
			     The System - The Black Pacific
-----------------------------------------------------------------------------
Tabbed by: Ryan M.
Email: walkingXdisaster@live.com

Tuning: Standard

Intro
e|--------------------------------------------------------------------------|
B|--------------------------------------------------------------------------|
G|-88888888-1212121212121212-1111111111111111-------------------------------|
D|-xxxxxxxx--x-x-x-x-x-x-x-x--x-x-x-x-x-x-x-x-------------------------------|
A|-66666666-1010101010101010--9-9-9-9-9-9-9-9--x2---------------------------|
E|--------------------------------------------------------------------------|

Pre-Verse
Gtr. 1
e|--------------------------------------------------------------------------|
B|--------------------------------------------------------------------------|
G|-8-xxxx-8-xxxx-99-8-xxxx-8-xx-66------8-xxxx-8-xxxx-99-8~~----------------|
D|-8-xxxx-8-xxxx-99-8-xxxx-8-xx-66------8-xxxx-8-xxxx-99-8~~----------------|
A|-6-xxxx-6-xxxx-77-6-xxxx-6-xx-44--x3--6-xxxx-6-xxxx-77-6~~----------------|
E|--------------------------------------------------------------------------|

Gtr. 2
e|-7~~--------------------10~~-------------12~~-----------------------------|
B|-9b11~~-----------------12b14~~----------14b16~~--------------------------|
G|--------------------------------------------------------------------------|
D|--------------------------------------------------------------------------|
A|--------------------------------------------------------------------------|
E|--------------------------------------------------------------------------|

Verse
e|--------------------------------------------------------------------------|
B|--------------------------------------------------------------------------|
G|-88888888----------66666666-8888-6-8-9-8----------------------------------|
D|-88888888-44444444-66666666-8888-6-8-9-8----------------------------------|
A|-66666666-44444444-44444444-6666-4-6-7-6--x4------------------------------|
E|----------22222222--------------------------------------------------------|

Chorus
e|----------------------------------------------------------------------------|
B|----------------------------------------------------------------------------|
G|-4444------6666-8888-------4444-66-77---------------------------------------|
D|-4444-4444-6666-8888-------4444-66-77---------------------------------------|I
A|-2222-4444-4444-6666-x3----2222-44-55---------------------------------------|
E|------2222------------------------------------------------------------------|

Post-Chorus
e|--------------------------------------------------------------------------|
B|--------------------------------------------------------------------------|
G|-8888-6-8888-6-8888-6-8888-6-9999-----------------------------------------|
D|-8888-6-8888-6-8888-6-8888-6-9999-----------------------------------------|
A|-6666-4-6666-4-6666-4-6666-4-7777---x2------------------------------------|
E|--------------------------------------------------------------------------|

Do Pre-Verse riff x2

Solo
e|--------------------------------------------------------------------------|
B|----------------------------------------9~-----19tm18tm16tm18tm-16~~~~~~~-|
G|-8~~~~~~~~~~8-6-4-6-4-3h4-3~------8~---11~--------------------------------|
D|--------------------------------------------------------------------------|
A|--------------------------------------------------------------------------|
E|--------------------------------------------------------------------------|
Tap to rate this tab
 
# A B C D E F G H I J K L M N O P Q R S T U V W X Y Z