Song name
# A B C D E F G H I J K L M N O P Q R S T U V W X Y Z

The Black Seeds - So True tab

Help us improve GuitareTab! Take a short survey!
-------------------------------------------------------------------------------
			     So True - The Black Seeds
-------------------------------------------------------------------------------
Tabbed by: Matt Hoare
Email: matthoare@hotmail.com

I've tabbed this song for an acoustic guitar and added a few fills for a possible 2nd guitar.

Most of this song (verse & chorus) is just G - Am 

	G	Am
e|------3-------5--------|
B|------3-------5--------|
G|------4-------5--------|
D|------5-------5--------|
A|------5------(7)-------|
E|------3-------5--------|

Verse 1
THE SWEETEST STUFF, YOU GIVE TO ME
IT MAKES ME FEEL FINE
EVERY LITTLE WORD THAT YOU SAY TO ME
KEEPS MY HEART ON TIME
READ MY PHONE LIKE A ROUGH RAPID
WHEN YOU WANT ME I'LL BUY
AIN'T NO DOUBT 'COS IT'S PLAIN TO SEE
SET OUR SOUL FIRE

Chorus
SOMETHING SO TRUE
IS WHAT I GET FROM YOU
AN' I HOPE THAT YOU'LL SEE
YOU GET THE BEST OF ME
OOOO YEAH

(I think? this is the bridge at the end of the chorus)
     G	  F?   Em   F?
e|---3----0----7----0----|
B|---3----1----8----1----|
G|---4----2----9----2----|
D|---5----3----9----3----|
A|---5----3----7----3----|
E|---3----1----0----1----|

2nd Guitar Chorus
	G   Am
e|------3---5-----7-5-------3---5-----------------|
B|------3---5---------8-5---3---5-----5---5-------|
G|------4---5---------------4---5---7---7---------|
D|------5---5---------------5---5-----------------|
A|------5--(7)--------------5--(7)----------------|
E|------3---5---------------3---5-----------------|


2nd Verse
MOST GENEROUS LOVE, YOU SPREAD AROUND
TO THE PEOPLE IN YOUR LIFE
SHARING THE WEIGHT AND THE PRESSURE
JUST TO MAKE IT RIGHT
I HOPE ONE DAY THAT YOU GET IT BACK
IF THAT KARMA STUFF IS TRUE
HERE'S A LITTLE SONG JUST TO MAKE A START
CALLED SOMETHING SO TRUE

Chorus
SOMETHING SO TRUE
IS WHAT I GET FROM YOU
AN' I HOPE THAT YOU'LL SEE
YOU GET THE BEST OF ME
OOOO YEAH

(I think? this is the bridge at the end of the chorus)
     G	  F?   Em   F?
e|---3----0----7----0----|
B|---3----1----8----1----|
G|---4----2----9----2----|
D|---5----3----9----3----|
A|---5----3----7----3----|
E|---3----1----0----1----|

2nd Guitar Chorus
	G   Am              G   Am
e|------3---5-----7-5-------3---5-----------------|
B|------3---5---------8-5---3---5-----5---5-------|
G|------4---5---------------4---5---7---7---------|
D|------5---5---------------5---5-----------------|
A|------5--(7)--------------5--(7)----------------|
E|------3---5---------------3---5-----------------|

Here are a few easy 2nd guitar fills. (based around an E pentonic scale)
	G   Am                        
e|------3---5----7-7-7--5-5-5--3-3-3-3---|
B|------3---5----8-8-8--5-5-5--3-3-3-3---|
G|------4---5----7-7-7--4-4-4--2-2-2-2---|
D|------5---5----------------------------|
A|------5--(7)---------------------------|
E|------3---5----------------------------|
	G   Am                        
e|------3---5----------------------------|
B|------3---5----10b(12)-8-----8---------|
G|------4---5--------------7h9-----------|
D|------5---5----------------------------|
A|------5--(7)---------------------------|
E|------3---5----------------------------|
	G   Am                        
e|------3---5----5p3p0-------------------|
B|------3---5----------5-5p3p0-----------|
G|------4---5------------------4---------|
D|------5---5----------------------------|
A|------5--(7)---------------------------|
E|------3---5----------------------------|

Outro
IT'S SO, SO TRUE [4 TIMES]
     G	  F?   Em   F?
e|---3----0----7----0----|
B|---3----1----8----1----|
G|---4----2----9----2----|
D|---5----3----9----3----|
A|---5----3----7----3----|
E|---3----1----0----1----|


| /  slide up
| \  slide down
| h  hammer-on
| p  pull-off
| ~  vibrato
| +  harmonic
| x  Mute note
===============================================================================
Related for So True tab