Guitaretab - guitar tabs
Song name
# A B C D E F G H I J K L M N O P Q R S T U V W X Y Z

The Blackbox Revelation - Gravity Blues tab

The Black box revelation : Gravity Blues

great song, great band !!

http://www.youtube.com/watch?v=n5llv4aKUnY

Just listen to the song and then you hear the rhythm to play

you can play the whole chords to..

intro :

e----------------------------------------------------------------------|
B---------5--5-------------8--8----------------------------------------|
G---------4--4-------------7--7----------------------------------------|    4x
D---------2--2-------------6--6----------------------------------------|
A--------------------------7--7----------------------------------------|
E----0-----------------------------------------------------------------|

Verse :

e----------------------------------------------------------------------|
B---------5--5-------------8--8----------------------------------------|
G---------4--4-------------7--7----------------------------------------|    4x
D---------2--2-------------6--6----------------------------------------|
A--------------------------7--7----------------------------------------|
E----0-----------------------------------------------------------------|

e-----------------------------------------------------------------------|
B----------5--5--------------------13-13--------------------------------|
G----------5--5--------------------12-12--------------------------------|    2x
D----------7--7--------------------11-11--------------------------------|
A----------------------------------12-12--------------------------------|
E------5----------------------------------------------------------------|


e----------------------------------------------------------------------|
B---------5--5-------------8--8----------------------------------------|
G---------4--4-------------7--7----------------------------------------|    2x
D---------2--2-------------6--6----------------------------------------|
A--------------------------7--7----------------------------------------|
E----0-----------------------------------------------------------------|


e----------7---7---------7--7-------------6-------------------------------------|
B----------7---7---------7--7-------------6----------------5---5----------------|
G----------8---8---------8--8-------------7----------------5---5----------------|
D----------7---7---------7--7-------------6----------------5---5----------------|
A-------------------------------------------------------------------------------|
E------7---------------7-----------------6------------------5---5---------------|
[ Tab from: http://www.guitaretab.com/t/the-blackbox-revelation/107683.html ]
e----0----0--------0------0------0----0--------------|
B----3--/--5-------3---/--5-------0---5-3-0----------|
G----------------------------------------------------|
D----------------------------------------------------|
A----------------------------------------------------|
E----------------------------------------------------|

e-----------------------------------(0)---(0)------------------------------|
B------------------------------------0-----0---0---------------------------|
G-------------2--0--2--0-----------/-2---/-2---0-----/-3-2-0---------------|
D---------------------------2-----------------------------------2--0-------|
A----------------------------------------------------------------------0---|
E--------------------------------------------------------------------------|


riff

Em	       C	        	    Am		     C	     B     	Am                     4x

Verse

(fuzz)

e--------------------------------------------------------------------------------------------|
B--------------------------------------------------------------------------------------------|
G--------------------------------------------------------------------------------------------|
D--------------------------------------------------------------------------------------------|
A--------------------------------------------------------------------------------------------|
E--12---0-0----3--5-------12---0--0---3--5-----12---0--0---3--5-----12---0-012-12-12-12-12--|


e----------------------------------------------------------------------------------------|
B---------8--8----8--8--8--8-------------------------------------------------------------|
G---------7--7----7--7--7--7-------------------------------------------------------------|4x
D---------6--6----6--6--6--6-------------------------------------------------------------|
A---------7--7----7--7--7--7-------------------------------------------------------------|
E----0-------------------------------------12-12-12-12-12-12-12-12-----------------------|

						3x
e----12--12----12--12---12--12---------------------------*-----12--12--12--12--12--12--12--12--12-|
B----12--12----12--12---12--12---------------------------*-----12--12--12--12--12--12--12--12--12-|
G----12--12----12--12---12--12---------------------------*-----12--12--12--12--12--12--12--12--12-|
D----12--12----12--12---12--12---------------------------*-----12--12--12--12--12--12--12--12--12-|
A--------------------------------------------------------*----------------------------------------|
E--------------------------------12-12-12-12-12-12-12-12-*----------------------------------------|

/-----------------------------------------------------------------------------------------------|
/-------------------------                                    ----------------------------------|


riff

Em	       C	        	    Am		     C	     B     	Am                     4x
Related for Gravity Blues tab