Song name
# A B C D E F G H I J K L M N O P Q R S T U V W X Y Z

The Blacksmith Experience - Nobodys Home tab

-------------------------------------------------------------------------
             NOBODY's HOME- The Blacksmith Experience
-------------------------------------------------------------------------
Tabbed by: Michael Sveten
Email: smikeb04@yahoo.com

Tuning: Standerd

Intro

e|-----------------------------------------------------------------------|
B|-----------------------------------------------------------------------|
G|--66xxxx--44xxxx--44x---------66xxxx--44xxxx--44x----------------------|
D|--77xxxx--55xxxx--55x--2-222--77xxxx--55xxxx--55x--2-222---------------|
A|--77xxxx--55xxxx--55x--2-222--77xxxx--55xxxx--55x--2-222---------------|
E|--55xxxx--33xxxx--33x--0-000--55xxxx--33xxxx--33x--0-000---------------|

e|-----------------------------------------------------------------------|
B|-----------------------------------------------------------------------|
G|--66xxxx--44xxxx--44x---------66xxxx--44x------------------------------|
D|--77xxxx--55xxxx--55x--2-222--77xxxx--55x--2-2222222-------------------|
A|--77xxxx--55xxxx--55x--2-222--77xxxx--55x--2-2222222-------------------|
E|--55xxxx--33xxxx--33x--0-000--55xxxx--33x--0-0000000-------------------|

Verse

e|-----------------------------------------------------------------------|
B|-----------------------------------------------------------------------|
G|--6666666666666666--4444444444444444-----------------------------------|
D|--7777777777777777--5555555555555555----(X2)---------------------------|
A|--7777777777777777--5555555555555555-----------------------------------|
E|--5555555555555555--3333333333333333-----------------------------------|
      pm************    pm************

Chorus

e|-----------------------------------------------------------------------|
B|-----------------------------------------------------------------------|
G|--66xxxx--44xxxx--44x---------66xxxx--44xxxx--44x----------------------|
D|--77xxxx--55xxxx--55x--2-222--77xxxx--55xxxx--55x--2-222---------------|
A|--77xxxx--55xxxx--55x--2-222--77xxxx--55xxxx--55x--2-222---------------|
E|--55xxxx--33xxxx--33x--0-000--55xxxx--33xxxx--33x--0-000---------------|

                                                       (Because Girl...)
e|-----------------------------------------------------------------------|
B|------------------------------------------------------22-222-222-222---|
G|--66xxxx--44xxxx--44x---------66xxxx--44x-------------22-222-222-222---|
D|--77xxxx--55xxxx--55x--2-222--77xxxx--55x--2-2222222--22-222-222-222---|
A|--77xxxx--55xxxx--55x--2-222--77xxxx--55x--2-2222222-------------------|
E|--55xxxx--33xxxx--33x--0-000--55xxxx--33x--0-0000000-------------------|

e|--33-333-333-333--22-222-222h3p2-222-----------------------------------|
B|------------------33-333-333-----333--22-222-222-222-------------------|
G|------------------22-222-222-----222--22-222-222-222-------------------|
D|--------------------------------------22-222-222-222--22-222-222-222---|
A|--22-222-222-222--------------------------------------22-222-222-222---|
E|--33-333-333-333--------------------------------------00-000-000-000---|

Verse

Chorus

Solo

e|-----------------------------------------------------------------------|
B|--9h10h11-9h10h11-9h10h11-9h10h11-9h10h11-9----------------------------|
G|--------------------------------------------11-11-11-11-11-11-11-11----|
D|-----------------------------------------------------------------------|
A|-----------------------------------------------------------------------|
E|-----------------------------------------------------------------------|

e|--------------------------------99-----99-----99-----99-----99---------|
B|---------------------------10/11--10/11--10/11--10/11--10/11--11-9999--|
G|--11-11-11-11-11-11-11-11----------------------------------------------|
D|-----------------------------------------------------------------------|
A|-----------------------------------------------------------------------|
E|-----------------------------------------------------------------------|

e|-----------------------------------------------------------------------|
B|--999999999999--9h10h11-9h10h11-9h10h11-9h10h11-9h10h11-9--------------|
G|----------------------------------------------------------11-11-11-11--|
D|-----------------------------------------------------------------------|
A|-----------------------------------------------------------------------|
E|-----------------------------------------------------------------------|

e|------------------------------------------99-----99-----99-----99-----99|
B|-------------------------------------10/11--10/11--10/11--10/11--10/11--|
G|--11-11-11-11-11-11-11-11-11-11-11-11-----------------------------------|
D|------------------------------------------------------------------------|
A|------------------------------------------------------------------------|
E|------------------------------------------------------------------------|

e|-----------------------------------------------------------------------|
B|--11-9999--------------------------------------------------------------|
G|----------11-11-11-11-10-10-10-----------------------------------------|
D|-------------------------------11-11-11-9-8----------------------------|
A|-----------------------------------------------------------------------|
E|-----------------------------------------------------------------------|

End Solo

Chorus

Outro 

e|-----------------------------------------------------------------------|
B|----------------------------------------------------2------------------|
G|--66xxxx--44xxxx--44x---------66xxxx--44xxxx--4-----2------------------|
D|--77xxxx--55xxxx--55x--2-222--77xxxx--55xxxx--5-2-0-2------------------|
A|--77xxxx--55xxxx--55x--2-222--77xxxx--55xxxx--5-2-0--------------------|
E|--55xxxx--33xxxx--33x--0-000--55xxxx--33xxxx--3-0-0--------------------|

Tap to rate this tab
# A B C D E F G H I J K L M N O P Q R S T U V W X Y Z