The Boxer Rebellion - The Runner tab

I played it by ear but I think it's correct. Enjoy! :)

Verse:

E|-------------------|
B|-------------8-----|
G|-----9-------------|
D|---------10--------|   4x
A|-------------------
E|-------------------|

E|-------------------|
B|--------------8----|
G|-----10------------|
D|----------8--------|   4x
A|-------------------|
E|-------------------|

E|-------------------|
B|--------------6----|
G|-----7-------------|
D|----------8--------|   4x
A|-------------------|
E|-------------------|

E|-------------------|
B|-------------8-----|
G|-----9-------------|
D|---------10--------|   4x
A|-------------------|
E|-------------------|

pre-chorus

E|-------------------------------------------------|
B|-------------------------------------------------|
G|-------------------------------------------------|
D|-------------------------------------------------|
A|--10--8--6--3--1--0------------------------------|
E|-------------------------------------------------|

Chorus:

E|-------------------------------------------------|
B|-------------------------------------------------|
G|-------------------------------------------------|
D|--13--12--8--5--13--12--7--8--7--5---------------|
A|-------------------------------------------------|
E|-------------------------------------------------|
Tap to rate this tab
 
# A B C D E F G H I J K L M N O P Q R S T U V W X Y Z