Song name
# A B C D E F G H I J K L M N O P Q R S T U V W X Y Z

The Brew - No Future tab

----------------------------------------------------------------------------
the brew
no future
unreleased
www.thebrew.biz
----------------------------------------------------------------------------

tabbed by: logan salminen
email: loganmoeron@yahoo.com


(disclamer: as I put before all the tunes I try to transcribe, this is the artists work 
I am only doing my best to interpret it.
And Davey D is a master jedi and i can't really touch a lot of the licks he has...but 
my best shot)

intro is c# to B

e|--------------------------------------------------------------------------|
B|--------------------------------------------------------------------------|
G|--6--6--6---6-6---------6--6--6-------------------------------------------|
D|--6--6--6---6-6---------6--6--6-------------------------------------------|
A|--4--4--4---4-4---------4--4--4----------4--------------------------------|
E|--------------------7-----------------4/5----4/5--------------------------|

then its: C#, E, A, (AAG#) this is played twice before lyrics come in.

verse progression:
C#, E, A, (AAG#) x2
F#, A, C#,
C#, D#, F# (D# and F# up an octave from last bar)

verse is played twice
then the chorus.

this is a simplified version of the melody.
it is played over this progression (no timing sorry)
E, B, F#, A, B
e|--------------------------------------------------------------------------|
B|--0--5--7------4--5--4-----4/5/4-2---2-4-5--5-4-2-0-----------------------|
G|--------------------------------------------------------------------------|
D|--------------------------------------------------------------------------|
A|--------------------------------------------------------------------------|
E|--------------------------------------------------------------------------|

after the chorus it's part of the intro riff.
then the same patterns pretty much repeat through again.
Tap to rate this tab
# A B C D E F G H I J K L M N O P Q R S T U V W X Y Z