Song name
# A B C D E F G H I J K L M N O P Q R S T U V W X Y Z

The Bright Light Social Hour - Back And Forth tab

This is the tab of "Back And Forth", The Bright Light Social Hour.
Don't forget to put some feeling, it's extremely important...
Hope you enjoy! :)

http://www.thebrightlightsocialhour.com/

 | b = bend         
 | r = release bend 
 | / = slide        
 | ~ = vibrato       


e|--0~--|
B|--1~--|
G|--2~--|
D|--2~--|
A|--0~--|
E|------|

INTRO
 
e|--------------------------------------------------------------------------|
B|-------------8--------------8--------------8---8/12-12-12-12-12-x-12-12p10|
G|-2/9--9-7h9x---9-7h9--9-7h9x-9-7h9--9-7h9x---9----------------------------|
D|--------------------------------------------------------------------------|
A|--------------------------------------------------------------------------|
E|--------------------------------------------------------------------------|

e|-------------------------------------------------------------------------|
B|--------8---8/12-12-12-12-x-12-12p10/---8---8h10--8---8h10--8-10b...10r--|
G|-9-7h9x---9-------------------------------9---------9--------9---------9~|
D|-------------------------------------------------------------------------|
A|-------------------------------------------------------------------------|
E|-------------------------------------------------------------------------|

REFRAIN

e|------------------------------------------|
B|-8-5---8-5---8-5--------------------------|
G|-----7-----7-----7-4---7-4---7-4--2-4-5-7-|
D|---------------------7-----7------2-4-5-7-|
A|----------------------------------0-2-3-5-|
E|------------------------------------------|

e|--------------------------------------------8~---8~---7-7~--|
B|-8-5---8-5---8-5----------------------------10~--10~--9-10~-|
G|-----7-----7-----7-4---7-4---7-4--7-9-11-12-9~---9~---8-9~--|
D|---------------------7-----7------7-9-11-12-----------------|
A|----------------------------------5-7-9--10-----------------|
E|------------------------------------------------------------|

e|-------------------|
B|----12---10--8--7~-|
G|--12---11---9--7---|
D|-------------------|
A|-------------------|
E|-------------------|

You do the same as the intro, but the final part you do this:

e|------------------------------------|
B|--15p12--12-15b--15p12--12----------|
G|-------14--------------14--14b16r14-|
D|------------------------------------|
A|------------------------------------|
E|------------------------------------|

e|--12-12-15p12--12-------------------------------------|
B|-------------15--15-12-15-12--------------------------|
G|-----------------------------14-12-14b16-16-16r14-----|
D|--------------------------------------------------14/-|
A|------------------------------------------------------|
E|------------------------------------------------------|

 The rest of the music is the same thing, and when the guitar came back
at the final part, you do almost the same thing as intro.
Tap to rate this tab
# A B C D E F G H I J K L M N O P Q R S T U V W X Y Z