Song name
# A B C D E F G H I J K L M N O P Q R S T U V W X Y Z

The Brilliant Green - Rock N Roll tab

***			terrafirma *** a brilliant green website
the brilliant		http://brilliant green.cjb.net
green			

Rock'n Roll
________________________________________________________________

standard tuning:
-----------------

  Bb: x13331
  Cm: x35543
  Eb: x69997
  G#: 466544
   C: x35553
 F#7: 242322

-----------------

INTRO:
Bb  |Bb  |Bb  |Bb  |


VERSE 1:
Bb             
In my head this sweet music
              Cm
Hope it stays with me forever
       Eb                     G#                     Bb
Blue horizon waiting, there's something for us there

Bb               
In my heart my sweet baby
            Cm
Hope I will have your love forever
       Eb             G#                  Bb
Blue horizon waiting to take us somewhere


CHORUS 1:
      Gm                             C
Babe, I'll paint the whole world just for you
            Eb                      Bb
In all your favorite shades of blue
       Gm            C
I need music and you
              Eb    
I'll always love you baby
F#7                         Bb      Bb  Bb  Bb
    Just you and rock'n roll yeah


VERSE 2:
Bb           
What will become of the world
           Cm
Whatever happens, it don't matter
       Eb               G#                     Bb
Blue horizon calling as stars are falling down

    Bb 
The music carries you and me
            Cm
It takes us to where we want to go
           Eb                   G#                        Bb
And riding on it's wings we will get there don't you know


CHORUS 2:
             F                  Eb
So baby it's one song sing it now
                      Bb
As sweet harmonies of love are coming through
       Gm            C
I need music and you
                Eb        F#7
I'll always love you baby yeah


SOLO:  (for actual solo, see below)
Bb  |Bb  |Bb  |Bb  |
Bb  |Bb  |Cm  |Cm  |
Eb  |G#  |Bb  |Bb  |
Bb  |Bb  |Cm  |Cm  |
Eb  |G#  |Bb  |Bb


CHORUS 3:
             F                  Eb
So baby it's one song sing it now
                      Bb
As sweet harmonies of love are coming through
       Gm            C
I need music and you
                Eb               Bb
I'll always love you baby uh huh 

       Gm            C
I need music and you
           Eb                    Bb
Yeah, just music and my baby too
               Gm                             C
I'll paint the world your favorite color blue
                Eb
I'll always love you baby
F#7                         Bb 
    Just you and rock'n roll yeah
F#7                         Bb 
    Just you and rock'n roll yeah
F#7                         Bb 
    Just you and rock'n roll yeah
F#7                         Bb     B~
    Just you and rock'n roll yeah

---------------------------------------------------------------------

SOLO:

  Bb             Bb               Bb               Bb
e|--------------|----------------|----------------|----------------|
B|--------------|----------------|----------------|----------------|
G|--------------|----------------|----------------|----------------|
D|--------------|----------------|----------------|---------2/3--3-|
A|--------------|----------------|----------------|----------------|
E|--------------|----------------|----------------|----------------|

  Bb             Bb               Cm               Cm
e|--------------|----------------|----------------|----------------|
B|-3---3-5p3----|--------------3-^-3^3^3--------3-|-3^3----------4-|
G|--------------|-----3-5^5-3----|-------5^5-3----|-----5-3-3----3-|
D|--------------|---3------------|----------------|-----------5----|
A|------------4-/-5--------------|----------------|----------------|
E|--------------|----------------|----------------|----------------|

  Eb             G#                Bb            Bb
e|--------------|-----------------|-------------|------------------|
B|-4------------|-----------------|-------------|------------------|
G|-3------------|-----------------|-------------|------------------|
D|----------3-/5|-5-/5-/5-5-3---3-|-3-----------|----------------3-|
A|--------5-----|-------------6---|--------6--5-|-5-3-3-1-1-1-/5---|
E|--------------|-----------------|-----6-------|------------------|

  Bb                   Bb                  Cm                 Cm
e|--------------------|-------------------|------------------|-------------------|
B|--------------------|---------------5^5-|-5^5-3-5-5-3--5^5-|--5^5--5^5^5-3---4-|
G|--------------------|-------3-3---3-5^5-|-5^5-3-5-5-3--5^5-|--5^5--5^5^5-3---3-|
D|-3-3--------------3-|-3-3-5-----5-------|------------------|---------------5---|
A|-----5\3-1-1-1-/5---|-------------------|------------------|-------------------|
E|--------------------|-------------------|------------------|-------------------|

  Eb              G#                Bb               Bb
e|---------------|-------6-6---8p6-|-6\-------------|--------------|
B|-4-----4p3-----|---6-8-----8-----|------6---------|-------10-----|
G|-3---------3-5-/-7---------------|------7-8-6h7---|--8/10-10-----|
D|---------------|-----------------|--------------8-|--------------|
A|-----6---------|-----------------|----------------|--------------|
E|---------------|-----------------|----------------|--------------|
                                                                so baby it's...
Tap to rate this tab
# A B C D E F G H I J K L M N O P Q R S T U V W X Y Z