Song name
# A B C D E F G H I J K L M N O P Q R S T U V W X Y Z

The Brilliant Green - Day After Day tab

Help us improve GuitareTab! Take a short survey!
Highlighted       Show chord diagrams
The Brilliant Green
Day After Day
Winter
2004
submitted by: paramore_fans@yahoo.com
http://brilliantgreen.cjb.net


Tuning: Standard EADGBe and Capo 3rd fret on all guitars:

Chords used:

   G: 320003
   C: x32010
  Am: x02210
   D: xx0232
  Em: 022000
G/F#: 2x0033
   A: x02220
  Bm: 224432
   F: 133211

Intro:

Guitar 1: G/B-C-Am (x2)

Guitar 2: Intro riff
e|---------------------------------|---------------------------------|
B|---------------------------------|-------------------------1---1---|
G|-----0-------0-------2-------2---|-----0-------0-------2-----2---2-|
D|---0---0---0---0---2---2---2---2-|---0---0---0---0---2---2---------| (x2)
A|-2-------3-------0-------0-------|-2-------3-------0---------------|
E|---------------------------------|---------------------------------|

then

Guitar 1: G--C--Am (x2)
Guitar 2: continue the intro riff


VERSE 1:
G  C     Am            G    C       Am
nando mo kizutsuki soredemo mada yukou
  G       C    Am         D       Em  G/F#
moeru you na nigai hakike wo musaete

G   C    Am             G   C      Am
tonikaku kyou kara hoka no ikikata wo
     G    C    Am           D           Em
koko wo hanare kokoro ni tsumoru kangae wo
       C      G      D             Em
matome oetara nantonaku ki ga sumu to omou wa
    C
hon no kitai dakedo


Chorus 1:
D         G              D
Day after day my head in blue
        Em         Bm           C         G       
     D
hikutsu ni naru no wa, yuu'utsu ga kokoro wo toraeteru kara
          G        D          Em       Bm
Day after day iron na toki ga aru koto wa
        C           D              F                  G--C--Am (x4)
shikata nai to akirametemo tameiki ga mune ni tsumaru kedo

Guitar 2: Same as Intro

Guitar 3:
e|-------7h8~--------7h8~-8p7----7-7---------7/8~--7~---------7/8~--8/10\3-|
B|-3/8~--------3/8~-----------8------10p8-10----------10p8-10--------------|
G|-------------------------------------------------------------------------|
D|-------------------------------------------------------------------------|
A|-------------------------------------------------------------------------|
E|-------------------------------------------------------------------------|


Verse 2:
G  C   Am          G     C    Am
nannen tattemo tomadou koto bakari
  G    C     Am           D          Em
maniawase no kotae wa itsumo bakageteru
       C          G      D           Em
kojitsuke ja naku hontou no hatsugen wo shitai wa
 C               D
iiwake mo yametai


CHORUS 2:
D         G              D
Day after day my head in blue
     Em       Bm
fuan mo aru kedo
      C         G        A      D
tokidoki, mirai wo yumemite iru wa
          G         D         Em       Bm
Day after day kanarazu meguru dekigoto ni
      C       D           F                G  
  Am
donna ni nayande itemo onaji sore wa shitteru wa
              G  C  Am
sore wa shitteru wa

Guitar 2: Same as Intro

Guitar 3:
e|-------7h8~--------7h8~-8p7---------7-------7p8-------7------------------|
B|-3/8~--------3/8~-----------8---10~---8/10~-----8-10~---8/10~-8\7/8~-----|
G|------------------------------7------------------------------------------|
D|-------------------------------------------------------------------------|
A|-------------------------------------------------------------------------|
E|-------------------------------------------------------------------------|

e|-8p7~---8p7~---8p7~---8p7~---8/10~-----8p7~----------8---8~-10-8p7~------|
B|------8------8------8------8-------8--------8/10~-10---8-----------8-----|
G|-------------------------------------7-----------------------------------|
D|-------------------------------------------------------------------------|
A|-------------------------------------------------------------------------|
E|-------------------------------------------------------------------------|
Related for Day After Day tab