Song name
# A B C D E F G H I J K L M N O P Q R S T U V W X Y Z

The Chameleons - Paper Tigers tab

Paper Tigers - Script of the bridge (1983)

Intro

Reg (overdriven guitar)

F#|------------------------------------------------------------------|
C#|------------------------------------------------------------------|
 A|------------------------------------------------------------------|
 E|------------------------------------------------------------------|
 B|------------------------------------------------------------------|
F#|-5-5-5-5-5-5-5-5-5-5-5-5-5-5-5-5-3-3-3-3-3-3-3-3-0-0-0-0-3-3-3-3--|

Dave (Chorus and delay guitar)

F#|------------------------------------------------------------------|
C#|------------------------------------------------------------------|
 A|------------------------------------------------------------------|
 E|------------------------------------------------------------------|
 B|------------------------------------------------------------------|
F#|-5-5-5-5-5-5-5-5-5-5-5-5-5-5-5-5-3-3-3-3-3-3-3-3-0-0-0-0-3-3-3-3--|

F#|------------------------------------------------------------------|
C#|------------------------------------------------------------------|
 A|------------------------------------------------------------------|
 E|------------------------------------------------------------------|
 B|------------------------------------------------------------------|
F#|-5-5-5-5-5-5-5-5-5-5-5-5-5-5-5-5-7-7-7-7-7-7-7-7-8-8-8-8-7-7-7-7--|

Chorus Riff 1

Reg

F#|------------------------------------------------------------------|
C#|------------------------------------------------------------------|
 A|------------------------------------------------------------------|
 E|------------------------------------------------------------------|
 B|------------------------------------------------------------------|
F#|-5-5-5-5-5-5-5-5-5-5-5-5-5-5-5-5-3-3-3-3-3-3-3-3-0-0-0-0-3-3-3-3--|

Dave

F#|-------------------------------------------------------------|
C#|-----10-8--------------------------10-8----------------------|
 A|----------9-9~--------------------------9-9~-----------------|
 E|-7-7-----------9-9-9-10~-10-9--7-7-----------9-9-9-10~-9-----|
 B|---------------------------------------------------------10~-|
F#|-------------------------------------------------------------|

F#|-------------------------------------------|
C#|-----10-8---------------12-12-12-13~-12-8~-|
 A|----------9-9~-----------------------------|
 E|-7-7---------------------------------------|
 B|-------------------------------------------|
F#|-------------------------------------------|

Verse

Reg

F#|-x-x-----x-x-----x-x-----x-x-----x-x-----x-x-----x-x-----x-x------|
C#|-x-x-----x-x-----x-x-----x-x-----x-x-----x-x-----x-x-----x-x------|
 A|-x-x-----x-x-----x-x-----x-x-----x-x-----x-x-----x-x-----x-x------|
 E|-x-x-7-7-x-x-7-7-x-x-7-7-x-x-7-7-x-x-7-7-x-x-7-7-x-x-7-7-x-x-7-7--|
 B|-x-x-7-7-x-x-7-7-x-x-7-7-x-x-7-7-x-x-7-7-x-x-7-7-x-x-7-7-x-x-7-7--|
F#|-x-x-5-5-x-x-5-5-x-x-5-5-x-x-5-5-x-x-5-5-x-x-5-5-x-x-5-5-x-x-5-5--|

Dave

F#|-------------------------------------------------------------------------------------|
C#|-------------------------------------------------------------------------------------|
 A|-------------------------------------------------------------------------------------|
 E|-10-10-10-10-10-10-10-10-9-9-9-9-7-7-7-7-10-10-10-10-10-10-10-10-9-9-9-9-12-12-12-12-|
 B|-------------------------------------------------------------------------------------|
F#|--8--8--8--8--8--8--8--8-7-7-7-7-5-5-5-5--8--8--8--8--8--8--8--8-7-7-7-7-10-10-10-10-|

Chorus

Reg

F#|------------------------------------------------------------------|
C#|------------------------------------------------------------------|
 A|------------------------------------------------------------------|
 E|-----7-5---------------------5-5-----7-5--------------------------|
 B|---------7-7-7-7-5-5-5-7-7-7-------------7-7-7-7-5-5-5------------|
F#|-5-5-----------------------------5-5-------------------7-7-0-3-3--|

Dave

F#|-------------------------------------------------------------|
C#|-----10-8--------------------------10-8----------------------|
 A|----------9-9~--------------------------9-9~-----------------|
 E|-7-7-----------9-9-9-10~-10-9--7-7-----------9-9-9-10~-9-----|
 B|---------------------------------------------------------10~-|
F#|-------------------------------------------------------------|

F#|-------------------------------------------|
C#|-----10-8---------------12-12-12-13~-12-8~-|
 A|----------9-9~-----------------------------|
 E|-7-7---------------------------------------|
 B|-------------------------------------------|
F#|-------------------------------------------|

Verse

Chorus

Intro Riff

Break

Reg

F#|---------12----12----12----12--|
C#|------12----12----12----12-----|
 A|-------------------------------|
 E|-------------------------------|
 B|-------------------------------|
F#|-5~~~--------------------------|

Dave

F#|-----0~----0~----------0----|
C#|----1~----3~-----0~--3---0~-|
 A|---2~----2~-----0~----------|
 E|--2~----0~-----2~-----------|
 B|-0~-----------2~------------|
F#|----------------------------|

Chorus

Verse

Chorus

Intro Riff

Final Part

Reg

F#|--------------||----|
C#|--------------||----|
 A|--------------||----|
 E|--------------||----|
 B|----3-2-------||----|
F#|-5~-----5-3~--||-5~-|

Dave

F#|-----0~----0~----------0----||-0-|
C#|----1~----3~-----0~--3---0~-||-1-|
 A|---2~----2~-----0~----------||-2-|
 E|--2~----0~-----2~-----------||-2-|
 B|-0~-----------2~------------||-0-|
F#|----------------------------||---|

PLEASE RATE!!!
Any corrections send me an e-mail: bizkornotem@hotmail.com
Tap to rate this tab
# A B C D E F G H I J K L M N O P Q R S T U V W X Y Z