Song name
# A B C D E F G H I J K L M N O P Q R S T U V W X Y Z

The Changcuters - I Love U Bibeh tab

Tuning:standard

e|---7--9--12--9--7--5--5-5------------5--7--7p9-----------------------------|
B|--------------------------------5--7---------------------------------------|
G|---------------------------4--6--------------------------------------------|
D|---------------------------------------------------------------------------|
A|---------------------------------------------------------------------------|
E|---------------------------------------------------------------------------|

e|-7~9~10-9-7------------5-----5--7p9-7p9-7-5--5-7-9-7-55|
B|-------------5p7-5--5-7--5-7---------------------------|
G|-------------------------------------------------------|
D|-------------------------------------------------------|
A|-------------------------------------------------------|
E|-------------------------------------------------------|
Tap to rate this tab
# A B C D E F G H I J K L M N O P Q R S T U V W X Y Z