Song name
# A B C D E F G H I J K L M N O P Q R S T U V W X Y Z

The Changcuters - Pria Idaman Wanita tab

e|----------------------------------------------------------|
B|----------------------------------------------------------|
G|----7h9--7h9--7h9---7--5h7-5~~---------5~~----------5~~---|
D|--------------------------------7--5h7-------7--5h7-------|
A|----------------------------------------------------------|
E|----------------------------------------------------------|


e|----------------------------------------------------------|
B|------------------------------------8---------------------|
G|----7h9--7h9--7h9---7--5h7-5~~--7h9---9--8--7--5h7-5~~----|
D|----------------------------------------------------------|
A|----------------------------------------------------------|
E|----------------------------------------------------------|

e|--------------------------------------------8--10---------|
B|------------------------------8----8--9--10---------------|
G|-------------5--------5---7h9---9-------------------------|
D|--------5h7----7--5h7-------------------------------------|
A|----5h7---------------------------------------------------|
E|----------------------------------------------------------|

e|----11-11-11-11-11---10-10-10-10--8--------------8-----------8--7~~s10------|
B|--------------------------------------------8h10----10--8h10----------------|
G|---------------------------------------7h9----------------------------------|
D|----------------------------------------------------------------------------|
A|----------------------------------------------------------------------------|
E|----------------------------------------------------------------------------|


ket :

"h" : hammer/slur
"~" : Vibra (getar)
"s" : slide  
Tap to rate this tab
# A B C D E F G H I J K L M N O P Q R S T U V W X Y Z