Song name
# A B C D E F G H I J K L M N O P Q R S T U V W X Y Z

The Cinematic Orchestra - To Build A Home tab

-------------------------------------------------------------------------------
			     SONG NAME - To Build A Home
-------------------------------------------------------------------------------
Tabbed by: The Leemond
Email:denimslugs@hotmail.com

This song is great, but its not just open chords. Sounds a lot better like this, its 
easy, loads of improvisation available. obviously all the notes are not 100% correct, 
its my version. enjoy. email me with comments or improvements. cheers. hope you like it.

play it with upstrokes with your first finger using your thumb to mute the low E, 
the open A lightly on each upstroke to add a little bass.

Tuning:EADGBE

e|-------------------------------------------------------------------------------|
B|-7-7-7-7-7-7-7-7-7-7-7-7-7-7-5-7~~---------------------7-7-7-7--12-10-10-10-10-|
G|-7-7-7-7-7-7-7-7-7-7-7-7-7-7-------7-7-7-7p6-6h7-7/9-9-9-9-9-9---9--9--9--9--9-|
D|-7-7-7-7-7-7-7-7-7-7-7-7-7-7-------7-7-7-7---7---7---7-7-7-7-7---9--9--9--9--9-|
A|-------------------------------------------------------------------------------|
E|-------------------------------------------------------------------------------|

e|-12-10-9---------------------------------------------------------------------------|
B|--9--9-9-10------------------------------------------------------------------------|
G|----------9-9-9h11-11-11-11/13-13h14-14-14-14-14-14\--6-6-6-6h7-7/9-9h11-11-11-11--|
D|------------9-9-----9--9--9/11-11----11-11-11-11-11\--7-7-7-7---7---7-----7--7--7--|
A|-----------------------------------------------------------------------------------|
E|-----------------------------------------------------------------------------------|

e|----------------12-10-9----------------------------------------------------|
B|-12-10-10-10-10--9--9-9-10-------------------------------------------------|
G|--9--9--9--9--9----------9-9-9h11-11-11-11/13-13h14-14-14-14-14-14\--------|
D|--9--9--9--9--9------------9-9-----9--9--9/11-11----11-11-11-11-11\--------|
A|---------------------------------------------------------------------------|
E|---------------------------------------------------------------------------|

e|-----------------------------------12-12-12-9-9-9------------------------------|
B|-7-7-7-7p5-5\3-3\2-2-2-2/5-----------------------------------------------------|
G|-x-x-x-x---x-x-x-x-x-x-x-x-7-7-7-7----------------9-9-9-9h11-11-11-11-11-11\---|
D|-7-7-7-7---7\4-4\2-2-2-2/5-x-x-x-x-11-11-11-9-9-9-0-0-0-0-----0--0--0--0--0----|
A|---------------------------5-5-5-5---------------------------------------------|
E|--------------------------------------------------9-9-9-9-----9--9--9--9--9\---|

e|-------------------------------------------------------------------------------|
B|-------------------------------------------------------------------------------|
G|---6---6---4---4---7---7---7---7---7---7---7---7~~-6-6-6-6h7-7/9-9h11-11-11-11-|
D|---0---0---0---0---0---0---0---0---0---0---0---0---7-7-7-7---7---7-----7--7--7-|
A|-------------------------------------------------------------------------------|
E|-5---5---3---3---7---7---7---7---7---7---7---7---------------------------------|

e|----------------12-10-9-------------------------------------------------------------|
B|-12-10-10-10-10--9--9-9-9-9h11-11-11-11/13-13h14-14-14-14-14-14\-7-7-7-7p5-5\4-4\2~-|
G|--9--9--9--9--9---------9-9-----9--9--9/11-11----11-11-11-11-11\-x-x-x-x---x-x-x-x--|
D|--9--9--9--9--9--------------------------------------------------7-7-7-7---7\3-3\2~-|
A|------------------------------------------------------------------------------------|
E|------------------------------------------------------------------------------------|

| /  slide up
| \  slide down
| h  hammer-on
| p  pull-off
| ~  vibrato
| +  harmonic
| x  Mute note
===============================================================================
Tap to rate this tab
# A B C D E F G H I J K L M N O P Q R S T U V W X Y Z