Song name
# A B C D E F G H I J K L M N O P Q R S T U V W X Y Z

The Copyrights - You And I tab

Intro
e--8--8--11--8--8--11--8--8---------|   
B-----------------------------------|     
G-----------------------------------|    
D-----------------------------------|  
A-----------------------------------|    
E-----------------------------------|

e-----------------------------------|   
B-----------------------------------|     
G--5--------5--------5--5-----------|    
D--5--3--5--5--3--5--5--5-----------|  
A--3--3--5--3--3--5--3--3-----------|    
E-----1--3-----1--3-----------------|

Verse
e-----------------------------------|   
B-----------------------------------|     
G--5--------5--------5--4/5---------|    
D--5--3--5--5--3--5--5--4/5---------|  
A--3--3--5--3--3--5--3--2/3---------|    
E-----1--3-----1--3-----------------|

Chorus
e--5---8---8---8---5---8----8---7---|   
B----5---6---8-------5---6----8-----|     
G-----------------------------------|    
D-----------------------------------|  
A-----------------------------------|    
E-----------------------------------|

e-----------------------------------|   
B-----------------------------------|     
G--------5--4/5---------5-----------|    
D--7--3--5--4/5---7--3--5--5--------|  
A--7--3--3--2/3---7--3--3--5--------|    
E--5--1-----------5--1-----3--------|

Outro
e---------|--------------------------|   
B---------|--------------------------|     
G--5------|--5-----------------------|    
D--5--5--3|--5-----------------------|  
A--3--5--3|--3-----------------------|    
E-----3--1|--------------------------|
Tap to rate this tab
# A B C D E F G H I J K L M N O P Q R S T U V W X Y Z