Song name
# A B C D E F G H I J K L M N O P Q R S T U V W X Y Z

The Copyrights - Two Left Feet tab

Intro
e--------------------------------------------------|
B--------------------------------------------------|
G--------------------------------------------------|
D--4--5--------------------------------------------|
A--------7--5--------------------------------------|
E--------------------------------------------------|

       1st guitar                 2nd
e-----------------------|---------------------------|
B-----------------------|---------------------------|
G--7---4--7--4--7-------|----------7----------------|
D--x---x--x--x--x---7---|----------x----------------|
A--5---2--5--2--5---7---|----------5----------------|
E-------------------5---|---------------------------|

Verse                            2nd Verse
e-------------------------|------------------------|
B-------------------------|------------------------|
G-----7-----7-----7-------|------------------------|
D--5--7--5--7--5--7--7----|------------------------|
A--5--5--5--5--5--5--7----|---7--5--444--5---------|
E--3-----3-----3-----5----|------------------------|

Chorus
    3x             1x
e-----------|---------------------------------------|
B-----------|---------------------------------------|
G--7--------|---------------------------------------|
D--7--7--5--|---5--7--------------------------------|
A--5--7--5--|---5--7--------------------------------|
E-----5--3--|---3--5--------------------------------|
                p.m..
Tap to rate this tab
# A B C D E F G H I J K L M N O P Q R S T U V W X Y Z