Song name
# A B C D E F G H I J K L M N O P Q R S T U V W X Y Z

The Crimea - Baby Boom tab

this is pretty accurate, not sure about a couple parts. Has slight delay.
Hope you enjoy!


RIFF A
e|-6-8-10-17-15-|-5-6-8-17-13/-|
b|--------------|--------------|
g|--------------|--------------|
d|--------------|--------------|
a|--------------|--------------|
E|--------------|--------------|

RIFF B
e|-6-8-10-17-15-|-10-11-13-11-10-11----|
b|--------------|-------------------6/-|
g|--------------|----------------------|
d|--------------|----------------------|
a|--------------|----------------------|
E|--------------|----------------------|
RIFF C
e|-13-12-10-8-10-| then RIFF A
b|---------------| straight afterwards
g|---------------|
d|---------------|
a|---------------|
E|---------------|

then RIFF B 

SOLO
e|-13-12-10-8-10-|-5-6-17-15-10-|---------------|
b|---------------|--------------|-13-11-/15-/15-|
g|---------------|--------------|---------------|
d|---------------|--------------|---------------|
a|---------------|--------------|---------------|
E|---------------|--------------|---------------|

e|-------17-15-10-|---------------|-8-21b-| not sure about
b|-13-11----------|-13-11-/15-/15-|-------| the bend
g|----------------|---------------|-------|
d|----------------|---------------|-------|
a|----------------|---------------|-------|
E|----------------|---------------|-------|

RIFF D - not sure about this one
e|-8h10-6-/8h10-6-|-12h13p12h13-|
b|----------------|-------------| then RIFF C
g|----------------|-------------| straight afterwards
d|----------------|-------------|
a|----------------|-------------|
E|----------------|-------------|

RIFF A ends the song
Tap to rate this tab
# A B C D E F G H I J K L M N O P Q R S T U V W X Y Z