The Damned Things - Friday Night tab

 Artist: The Damned Things
 Song: Friday Night(Going Down in Flames)
 Tuning: Drop C (C G C F A D)
 Tabbed by Julian
 This is a great song, I haven't found any tabs for this so here's my attempt at it! I 
didn't figure out the lead for some parts but I'll update as soon as I can. Hope everyone 
likes it, enjoy :)



|-----------------------------------------------------------------|
|-----------------------------------------------------------------|
|-------------------------------------------------------------10~-|
|--x-12-12-12-10-x--------------x-12-12-12-10-12-x------10-12-----|
|--x-12-12-12-10-x-------10-12~-x-12-12-12-10-12-x-10-12----------|
|--x-12-12-12-10-x-10-12--------x-12-12-12-10-12-x----------------|


---------------------------------------------------------------|
---------------------------------------------------------------|
---------------------------------------------------------------|
--x-12-12-12-10-12-x-x--x--x-12-10-7/8--8--8-8-x-x-------------| 2x
--x-12-12-12-10-12-x-x--x--x-12-10-7/8--8--8-8-x-x-10p8--------|
--x-12-12-12-10-12-x-x--x--x-12-10-7/8--8--8-8-x-x------10~----|


|-------------------------------------------------------------------------|
|-------------------------------------------------------------------------|
|-------------------------------------------------------------------------|
|--x-12-12-12-10-12-x-x--x--x-x--x--x-12-12-12-10-12-x-x--x--x-x--x--x----|
|--x-12-12-12-10-12-x-x--x--x-x--x--x-12-12-12-10-12-x-x--x--x-x--x--x----|
|--x-12-12-12-10-12-x-x--x--x-x--x--x-12-12-12-10-12-x-x--x--x-x--x--x----|


-----------------------------------------------------------|
-----------------------------------------------------------|
-----------------------------------------------------------|
-12-12-12-10-12-x-x--x--x-12-10-7/8--8--8-8-x-x------------| 2x
-12-12-12-10-12-x-x--x--x-12-10-7/8--8--8-8-x-x-10p8-------|
-12-12-12-10-12-x-x--x--x-12-10-7/8--8--8-8-x-x------10~---|


|---------------|
|---------------|
|---------------|
|---------------|
|--5~--10p8-----|
|--8~-------10--|


|---------------------------------------------------------------|
|---------------------------------------------------------------|
|---------------------------------------------------------------|
|--x-12--12-12--12-12-12--7--7-7--7-7-7--8--8-8--8-8-x----------|
|--x-12--12-12--12-12-12--7--7-7--7-7-7--8--8-8--8-8-x-----10~--|
|--x-12--12-12--12-12-12--7--7-7--7-7-7--8--8-8--8-8-x--10~-----|


-----------------------------------------------------------------|
-----------------------------------------------------------------|
-----------------------------------------------------------------|
-x-12--12-12--12-12-12--7--7-7--7-7-7--8--8-8--8-8-x--3-5-3--5-3-|
-x-12--12-12--12-12-12--7--7-7--7-7-7--8--8-8--8-8-x--3-5-3--5-3-|
-x-12--12-12--12-12-12--7--7-7--7-7-7--8--8-8--8-8-x--3-5-3--5-3-|


-----------------------------------------------------------|
-----------------------------------------------------------|
-----------------------------------------------------------|
-12--12-12--12-12-12--7--7-7--7-7-7--8--8-8--8-8-x---------|
-12--12-12--12-12-12--7--7-7--7-7-7--8--8-8--8-8-x-----10~-|
-12--12-12--12-12-12--7--7-7--7-7-7--8--8-8--8-8-x--10~----|


-------------------------------------------------------------|
-------------------------------------------------------------|
-------------------------------------------------------------|
-x-5--5-5--5-5-5--5-5-5--5-5--x-7--7-7--7-7-7--7-7-7--7-7-7--|
-x-5--5-5--5-5-5--5-5-5--5-5--x-7--7-7--7-7-7--7-7-7--7-7-7--|
-x-5--5-5--5-5-5--5-5-5--5-5--x-7--7-7--7-7-7--7-7-7--7-7-7--|


|-----------------------------------------------------------------|
|-----------------------------------------------------------------|
|-------------------------------------------------------------10~-|
|--x-12-12-12-10-x--------------x-12-12-12-10-12-x------10-12-----|
|--x-12-12-12-10-x-------10-12~-x-12-12-12-10-12-x-10-12----------|
|--x-12-12-12-10-x-10-12--------x-12-12-12-10-12-x----------------|


---------------------------------------------------------------|
---------------------------------------------------------------|
---------------------------------------------------------------|
--x-12-12-12-10-12-x-x--x--x-12-10-7/8--8--8-8-x-x-------------|
--x-12-12-12-10-12-x-x--x--x-12-10-7/8--8--8-8-x-x-10p8--------|
--x-12-12-12-10-12-x-x--x--x-12-10-7/8--8--8-8-x-x------10~----|


|-------------------------------------------------------------------------|
|-------------------------------------------------------------------------|
|-------------------------------------------------------------------------|
|--x-12-12-12-10-12-x-x--x--x-x--x--x-12-12-12-10-12-x-x--x--x-x--x--x----|
|--x-12-12-12-10-12-x-x--x--x-x--x--x-12-12-12-10-12-x-x--x--x-x--x--x----|
|--x-12-12-12-10-12-x-x--x--x-x--x--x-12-12-12-10-12-x-x--x--x-x--x--x----|


-----------------------------------------------------------|
-----------------------------------------------------------|
-----------------------------------------------------------|
-12-12-12-10-12-x-x--x--x-12-10-7/8--8--8-8-x-x------------| 2x
-12-12-12-10-12-x-x--x--x-12-10-7/8--8--8-8-x-x-10p8-------|
-12-12-12-10-12-x-x--x--x-12-10-7/8--8--8-8-x-x------10~---|


|---------------|
|---------------|
|---------------|
|---------------|
|--5~--10p8-----|
|--8~-------10--|


|---------------------------------------------------------------|
|---------------------------------------------------------------|
|---------------------------------------------------------------|
|--x-12--12-12--12-12-12--7--7-7--7-7-7--8--8-8--8-8-x----------|
|--x-12--12-12--12-12-12--7--7-7--7-7-7--8--8-8--8-8-x-----10~--|
|--x-12--12-12--12-12-12--7--7-7--7-7-7--8--8-8--8-8-x--10~-----|


-----------------------------------------------------------------|
-----------------------------------------------------------------|
-----------------------------------------------------------------|
-x-12--12-12--12-12-12--7--7-7--7-7-7--8--8-8--8-8-x--3-5-3--5-3-|
-x-12--12-12--12-12-12--7--7-7--7-7-7--8--8-8--8-8-x--3-5-3--5-3-|
-x-12--12-12--12-12-12--7--7-7--7-7-7--8--8-8--8-8-x--3-5-3--5-3-|


-----------------------------------------------------------|
-----------------------------------------------------------|
-----------------------------------------------------------|
-12--12-12--12-12-12--7--7-7--7-7-7--8--8-8--8-8-x---------|
-12--12-12--12-12-12--7--7-7--7-7-7--8--8-8--8-8-x-----10~-|
-12--12-12--12-12-12--7--7-7--7-7-7--8--8-8--8-8-x--10~----|


-------------------------------------------------------------|
-------------------------------------------------------------|
-------------------------------------------------------------|
-x-5--5-5--5-5-5--5-5-5--5-5--x-7--7-7--7-7-7--7-7-7--7-7-7--|
-x-5--5-5--5-5-5--5-5-5--5-5--x-7--7-7--7-7-7--7-7-7--7-7-7--|
-x-5--5-5--5-5-5--5-5-5--5-5--x-7--7-7--7-7-7--7-7-7--7-7-7--|


|---------------------------|
|---------------------------|
|---------------------------|
|---------------------------| 3x                           sorry
|--5b6r5-3------------------|                              these
|----------5-5b6r5-3p0------|                              aren't
                                                           perfect
                                                           but I'm
|---------------------------------------|                  sure you
|---------------------------------------|                  can improvise
|---------------------------------------|
|--5-5--3--5--3------------------3------| 8x
|--5-5--3--5--3--5b6r5-3---------3------|
|--5-5--3--5--3----------5-5b6r5-3------|


I couldn't figure out the solo
but here's the next part..

|---------------|
|---------------|
|---------------|
|---------------|
|--5~--10p8-----|
|--8~-------10--|


|---------------------------------------------------------------|
|---------------------------------------------------------------|
|---------------------------------------------------------------|
|--x-12--12-12--12-12-12--7--7-7--7-7-7--8--8-8--8-8-x----------|
|--x-12--12-12--12-12-12--7--7-7--7-7-7--8--8-8--8-8-x-----10~--|
|--x-12--12-12--12-12-12--7--7-7--7-7-7--8--8-8--8-8-x--10~-----|


-----------------------------------------------------------------|
-----------------------------------------------------------------|
-----------------------------------------------------------------|
-x-12--12-12--12-12-12--7--7-7--7-7-7--8--8-8--8-8-x--3-5-3--5-3-|
-x-12--12-12--12-12-12--7--7-7--7-7-7--8--8-8--8-8-x--3-5-3--5-3-|
-x-12--12-12--12-12-12--7--7-7--7-7-7--8--8-8--8-8-x--3-5-3--5-3-|


-----------------------------------------------------------|
-----------------------------------------------------------|
-----------------------------------------------------------|
-12--12-12--12-12-12--7--7-7--7-7-7--8--8-8--8-8-x---------|
-12--12-12--12-12-12--7--7-7--7-7-7--8--8-8--8-8-x-----10~-|
-12--12-12--12-12-12--7--7-7--7-7-7--8--8-8--8-8-x--10~----|


-------------------------------------------------------------|
-------------------------------------------------------------|
-------------------------------------------------------------|
-x-5--5-5--5-5-5--5-5-5--5-5--x-7--7-7--7-7-7--7-7-7--7-7-7--|
-x-5--5-5--5-5-5--5-5-5--5-5--x-7--7-7--7-7-7--7-7-7--7-7-7--|
-x-5--5-5--5-5-5--5-5-5--5-5--x-7--7-7--7-7-7--7-7-7--7-7-7--|



|---------------------------------------------------------------|
|---------------------------------------------------------------|
|---------------------------------------------------------------|
|--x-12--12-12--12-12-12--7--7-7--7-7-7--8--8-8--8-8-x----------|
|--x-12--12-12--12-12-12--7--7-7--7-7-7--8--8-8--8-8-x-----10~--|
|--x-12--12-12--12-12-12--7--7-7--7-7-7--8--8-8--8-8-x--10~-----|


-----------------------------------------------------------------|
-----------------------------------------------------------------|
-----------------------------------------------------------------|
-x-12--12-12--12-12-12--7--7-7--7-7-7--8--8-8--8-8-x--3-5-3--5-3-|
-x-12--12-12--12-12-12--7--7-7--7-7-7--8--8-8--8-8-x--3-5-3--5-3-|
-x-12--12-12--12-12-12--7--7-7--7-7-7--8--8-8--8-8-x--3-5-3--5-3-|


-----------------------------------------------------------|
-----------------------------------------------------------|
-----------------------------------------------------------|
-12--12-12--12-12-12--7--7-7--7-7-7--8--8-8--8-8-x---------|
-12--12-12--12-12-12--7--7-7--7-7-7--8--8-8--8-8-x-----10~-|
-12--12-12--12-12-12--7--7-7--7-7-7--8--8-8--8-8-x--10~----|


-------------------------------------------------------------|
-------------------------------------------------------------|
-------------------------------------------------------------|
-x-5--5-5--5-5-5--5-5-5--5-5--x-7--7-7--7-7-7--7-7-7--7-7-7--|
-x-5--5-5--5-5-5--5-5-5--5-5--x-7--7-7--7-7-7--7-7-7--7-7-7--|
-x-5--5-5--5-5-5--5-5-5--5-5--x-7--7-7--7-7-7--7-7-7--7-7-7--|



|--------------------------------------------------------------------|
|--------------------------------------------------------------------|
|--------------------------------------------------------------------|
|--------------------------------------------------------------0-0---|
|--5b6r5-3--------------5b6r5-3--------------5b6r5-3-----------0-0---|
|----------5-5b6r5-3p0----------5-5b6r5-3p0----------5-5b6r5-3-0-0---|


Hope That Helped!
Comment and Rate!
Tap to rate this tab
 
# A B C D E F G H I J K L M N O P Q R S T U V W X Y Z