Song name
# A B C D E F G H I J K L M N O P Q R S T U V W X Y Z

The Dead Weather - I Cant Hear You tab

-----------------------------------------------------------------------------
                   I Can't Hear You - The Dead Weather
-----------------------------------------------------------------------------

Tabbed by: Jacky III
Email: jacqueline.stuermer@web.de

Tuning: standard

I hope you'll enjoy it. It's my first tab, so please be friendly :)

Verse
e|--------------------3-1----------------------------3-1---------------------|
B|--------1-3------1------3-1--------------1-3-----1-----3-1-----------------|
G|--0-0-3-----0--3------------3--0---0-0-3-----0-3-----------3---------------|
D|---------------------------------------------------------------------------|
A|---------------------------------------------------------------------------|
E|---------------------------------------------------------------------------|

Chorus
e|--3-3-1-3---6-3--3-3-1-3---3-3-1-3---6-3--3-3-1-3--------------------------|
B|---------------------------------------------------------------------------|
G|---------------------------------------------------------------------------|
D|---------------------------------------------------------------------------|
A|---------------------------------------------------------------------------|
E|---------------------------------------------------------------------------|
Tap to rate this tab
# A B C D E F G H I J K L M N O P Q R S T U V W X Y Z