Song name
# A B C D E F G H I J K L M N O P Q R S T U V W X Y Z

The Devil Makes Three - The Plank tab

this tab is kind of rough, i just outlined the main
parts of the chord that you have to play. aand the chord names are 
above the tab and such. if you listen to the song while 
your learning, try to pay attention to what notes he lets ring.


Intro/Verse

   Em              Cmaj7     Badd4
e|-------------------------------0--|
B|---8---8---8-------0-0---------0--|
G|---9---9---9------[9]--------8----|
D|---9---9---9----------10-----9----|
A|-7-------7-------10--------9-9----|
E|-----7-------7-3-8-------8-7------|

that nine is in brackets because you can play it or not,
it doesn't really matter. 


Bridge

im not sure if the notes are played that constantly, but thats
how i play it and it sounds good to me

e|----------------------------------------------------------------------|
B|---0-------0------0--------0-------------0---------0----7-------7-----|
G|-------0-------0-------0-------0----9---------9-------------8-------8-|
D|------------------------------------------------------9---9---9---9---|
A|-7---7---7---7---7---7---7---7---10---10---10---10--------------------|
E|----------------------------------------------------------------------|

Chorus
 
   Em              Am          C        B
e|---------------------------------------------|
B|---8---8---8---8-----0-----------------------|
G|---9---9---9---9---5---------9--9--9--8-8-8--|
D|---9---9---9---9---7---10----10-10-10-9-9-9--|
A|-7-------7-------7-------10--10-10-10-9-9-9--|
E|-----7-------7---5---------8-8--8--8--7-7-7--|


there you go, listen to the song to get figure out the order.
Tap to rate this tab
 
# A B C D E F G H I J K L M N O P Q R S T U V W X Y Z