Song name
# A B C D E F G H I J K L M N O P Q R S T U V W X Y Z

The Devil Wears Prada - Lord Xenu tab

its in dropped d
this is an easy song to play/ figure out. im tabbing the gist of the song, most of the 
parts. the rest you can figure out being that tdwp uses almost the same notes and frets 
every one of their songs.

heres the notes, figure out the strumming becuase im too lazy to tab it.

m-palm mute

*-mute

~let ring

intro

|---------------------------------------------------------|
|---------------------------------------------------------|
|--10---9---12---14---------------------------------------|
|---x---x----x----x---------------------------------------|
|---8---7---10---12---------------------------------------|
|---------------------------------------------------------|

intro riff thing   0:10 to 0:29
                                      use pull offs on this riff
|---------------------------------------------------------|
|---------------------------------------------------------|
|--------9---99---10101010101010-----------9109--9--------|
|--------x---xx----x-x-x-x-x-x-x---------------12-0-------|  x2
|--0-0---7---77----8-8-8-8-8-8-8--0m----0----------10-12--|
|--0-0----------------------------0m----0-----------------|

|-------------------------------------------------------------|
|-------------------------------------------------------------|
|--------1414--1414---14141414141414-----------9109--9--------|
|---------x-x---x-x----x-x-x-x-x-x-x---------------12-0-------|
|--0-0---1212--1212---12121212121212--0m----0----------10-12--|
|--0-0--------------------------------0m----0-----------------|

        0:30                     0:39
  (this is twice i think)
|---------------------------|------------------------------|
|---------------------------|------------------------------|
|---------------------------|------------------------------|
|---------------------------|------------------------------|
|--0~--------------0-0-0*---|--------5---8---0---3---------|
|--0~--------------0-0-0*---|--------5---8---0---3---------|
                                   ^strum numerous times (you'll get it)


not tabbing the breakdown from 0:59 to 1:17 ..its a bunch of opens,
i figured it out so can you


                     the lead riff at 1:18 to 1:38 is
|------------------|---------------------------------------------------------|
|------------------|---------------------------------------------------------|
|--10101010--9999--|---------14-15-14------------14-15-14-------------14-15--|
|---x-x-x-x--xxxx--|--12--15----------15--12--15-----------15--12--15--------|
|---8-8-8-8--7777--|---------------------------------------------------------|
|------------------|---------------------------------------------------------|

then at 1:38-1:56 it goes to strumming 8 to 10 to open
strum 8 and 10 approximately 14 times, then double that open.

|----------------------------------------------------------------|
|----------------------------------------------------------------|
|----------------------------------------------------------------|
|----------------------------------------------------------------| x2
|---8---10---0---------------------------------------------------|
|---8---10---0---------------------------------------------------|

next part (1:57 to 2:17)

|----------------------------------------------------------------|
|----------------------------------------------------------------|
|----------------------------------------------------------------|
|-----------------------10-------5-7----------------10-------5-7-|
|--8--7--5--------8---0------5---------8------8---0------5-------|
|--8--7--5----000---0------0---0-----0---0000---0------0---0-----|
that goes into this vvv  (may be a little different)

|----------------------------------------------------------------|
|----------------------------------------------------------------|
|----------------------------------------------------------------|
|------------------10-------5-7----------------10-------5-7------|
|--10-8------8---0------5---------8------8---0------5------------|
|--10-888------8------8---8-----8---8888---8------8---8----------|

|----------------------------------------------------------------|
|----------------------------------------------------------------|
|----------------------------------------------------------------|
|-----------------10-------5-7----------------10-------10-12-----|
|--8-5------8---0------5---------8------8---0------5-------------|
|--8-555------5------5---5-----5---5555---5------5---5-----------|

all that twice then another breakdown with all opens

little riff at 2:36-2:37/8

|-----------------------|
|-----------------------|
|--9109-----------------|
|------10120------------|
|-----------1012--------|
|-----------------------|

then the ending break down is all opens basically except for the little bend on D 1

well thats it.
Tap to rate this tab
# A B C D E F G H I J K L M N O P Q R S T U V W X Y Z