Guitaretab - guitar tabs
Song name
# A B C D E F G H I J K L M N O P Q R S T U V W X Y Z

The Devil Wears Prada - Assistant To The Regional Manager tab

Assistant to the Regional Manager
The Devil Wears Prada
With Roots Above and Branches Below
Tabbed by: Conner
Email: www.youtube.com/KillswitchEngage42
I have a video up on Youtube under the name KillswitchEngage42. Check it out :) Rate and 
please too. And if you have corrections, which there probably will be, Just leave a 
and I'll fix it.

Tuning: Drop B

Intro: WIth Delay x however many, I think you can figure it out
e|----8---------------------------------------------------------------------|
B|-------6-8-10-----10--8-6-------------------------------------------------|
G|-7-------------7----------------------------------------------------------|
D|--------------------------------------------------------------------------|
A|--------------------------------------------------------------------------|
E|--------------------------------------------------------------------------|

Little verse thing :) x2
e|--------------------------------------------------------------------------|
B|--------------------------------------------------------------------------|
G|--------------------------------------------------------------------------|
D|--------------------------------------------------------------------------|
A|--------------------------------------------------------8--8--8/12-10-8---|
E|000-15-00-1414-14\-0000-888-00-33---000-15-00-1414--0000--0--0------------|
  ...    ..          ....     ..      ...    ..       ....  .  .

Clean vox part: Love Jeremy's voice here
e|--------------------------------------------------------------------------|
B|--------------------------------------------------------------------------|
G|--------------------------------------------------------------------------|
D|------------------------33-3---33-3---33-33-------------------------------|
A|00-0---00-0---00-00-x2--11-1---11-1---11-11---55-5---55-5---55-55---------|
E|00-0---00-0---00-00---------------------------55-5---55-5---55-55---------|
  .      .      .. .      .      .      .. .    .      .      .. .

Beautiful sweeping part with delay x2
e|17p13-------13h17p13-------------------------------------------------------|
B|-----15---15--------15-----------------------------------------------------|
G|-------14-------------14--14h15p14-----------------------------------------|
D|----------------------------------15h17-14h15p14---------------------------|
A|------------------------------------------------15h17----------------------|
E|---------------------------------------------------------------------------|

e|17p13------13h17p13--------------------------17/20-------------------------|
B|-----15--15--------15------------------------------------------------------|
G|-------14------------14--14h15p14------17\14-------------------------------|
D|---------------------------------15h17-------------------------------------|
A|---------------------------------------------------------------------------|
E|---------------------------------------------------------------------------|

Bridge to next verse with open B power chords
e|--------------------------------------------------------------------------|
B|--------------------------------------------------------------------------|
G|--------------------------------------------------------------------------|
D|--------------------------------------------------------------------------|
A|0-0-0-0-0-0-0-0-----------------------------------------------------------|
E|0-0-0-0-0-0-0-0-PICK SLIDE -----------------------------------------------|
[ Tab from: http://www.guitaretab.com/t/the-devil-wears-prada/182576.html ]
Verse sort of deal- the little fill riff in the left speaker I'm not sure about so leave 
comment of what you think it is :)
e|--------------------------------------------------------------------------|
B|--------------------------------------------------------------------------|
G|--------------------------------------------------------------------------|
D|--------------------------------------------------------------------------|
A|---7-5-----8-7--0000000000000000-second time-000-000-000-000--------------|
E|55--5---88--8---0000000000000000-------------000-000-000-000--------------|
   .  .    .  .   ................             ... ... ... ...

Love the Keys here
e|--------------------------------------------------------------------------|
B|--------------------------------------------------------------------------|
G|--------------------------------------------------------------------------|
D|--------------------------------------------------------------------------|
A|000-000-000-000-000-000-000---000-000-0h8h12-0h812-0h7h10-0h5h8-----------|
E|000-000-000-000-000-000-000---000-000-------------------------------------|
  ... ... ... ... ... ... ...   ... ...

e|--------------------------------------------------------------------------|
B|--------------------------------------------------------------------------|
G|--------------------------------------------------------------------------|
D|--------------------------------------------------------------------------|
A|000-000-000-000-000-000-000---000-000-0h7h10-0h7h10-0h5h8-0h4h7-----------|
E|000-000-000-000-000-000-000---000-000-------------------------------------|
  ... ... ... ... ... ... ...   ... ...
this part x2 except the last time

e|--------------------------------------------------------------------------|
B|--------------------------------------------------------------------------|
G|--------------------------------------------------------------------------|
D|----------------------------------------------------------------0---------|
A|000-000-000-000-000-000-000---000-000-0h7h10-0h7h10-0h5h8-0h4h5-0hold-----|
E|000-000-000-000-000-000-000---000-000---------------------------0---------|
  ... ... ... ... ... ... ...   ... ...

With delay
e|------------------------------------------------17--17---------------------|
B|15--1515--1515--18--1818----18--15--1515--15-------------------------------|
G|--17----17----17--17----1717--17--17----17--1717--17-----------------------|
D|---------------------------------------------------------------------------|
A|---------------------------------------------------------------------------|
E|---------------------------------------------------------------------------|

e|--------------------------------------------------------------------------|
B|--------------------------------------------------------------------------|
G|--------------------------------------------------------------------------|
D|--------------------------------------------------------------------------|
A|0000000000000000-333333333333333-0000000000000000-5555555588888888--------|
E|0000000000000000-333333333333333-0000000000000000-5555555588888888--------|
  THe next is same but palm muted

The first verse repeated but with an exta 8/12 10 8 at the end and then...
e|--------------------------------------------------------------------------|
B|--------------------------------------------------------------------------|
G|--------------------------------------------------------------------------|
D|--------------------------------------------------------------------------|
A|8-3---------------0321012--------------0320-------------------------------|
E|8-3--11-1~-11-1~--0321012--11-1~-11-1~-0320-------------------------------|
       .     .               .     .
Breakdown
e|--------------------------------------------------------------------------|
B|--------------------------------------------------------------------------|
G|--------------------------------------------------------------------------|
D|--------------------------------------------------------------------------|
A|00-00-0-0--0-0-0-0--00-00-0-0-0-0-0000------x2----------------------------|
E|00-00-0-0--0-0-0-0--00-00-0-0-0-0-0000slide-------------------------------|  .. .. . . 
. . . .  .. .. . . . . ....

All the rest includes palm muted 1's instead of palm muted 0's. And then go back and 
the same pattern that is listed above to end the song.


| /  slide up
| \  slide down
| h  hammer-on
| p  pull-off
| ~  vibrato
Related for Assistant To The Regional Manager tab
Advertisement will be closed in 10 seconds