The Drills - I Wish My Beer Was As Cold As Your Heart tab

I wish my beer was as cold as your heart


All chords are good but for rythm you must listen the song again and again !

   DADGBE


---------------------------------------------------|
---------------------------------------------------|
------------------------------7---6---5------------|
--0--1- 2--5---5-4-3-2--5-7-- 7xx-6-- 5------------|
--0--1- 2--5---5-4-3-2--5-7- -5xx-4-x 3------------|
--0--1- 2--5---5-4-3-2--5-7------------------------|

---------------------------------------------------|
---------------------------------------------------|
---------------------------------------------------|
--0--1- 2--5---5-4-3-2--5-7-- 7xx-8-7- ------------|
--0--1- 2--5---5-4-3-2--5-7- -5xx-8-7 -------------|
--0--1- 2--5---5-4-3-2--5-7-------8-7--------------|

---------------------------------------------------|
---------------------------------------------------|
------------------------------7---6---5------------|
--0--1- 2--5---5-4-3-2--5-7-- 7xx-6-- 5------------|
--0--1- 2--5---5-4-3-2--5-7- -5xx-4-x 3------------|
--0--1- 2--5---5-4-3-2--5-7------------------------|

---------------------------------------------------|
---------------------------------------------------|
------------------------------7-- -----------------|
--0--1- 2--5---5-4-3-2--5-7-- 7-5-7- --------------|
--0--1- 2--5---5-4-3-2--5-7- -5 5-7- --------------|
--0--1- 2--5---5-4-3-2--5-7-----5-7----5--4--3*----|

                                    *artificial harmonic

-----------------------------------------| x3
-(9)(9)-----(9)(9)-----(9)--------(10)---|
--9--9-------9- 9-------9----------10----|
--9--9-------9- 9-------9----------10----|
--7--7-------7- 7-------7-----------8----|
pm---- 000-------  000----  00000--------|

----------------------------------------------------|
-(9)(9)-----(9)(9)-----(9)--------------------------|
--9--9-------9- 9-------9-9-9-9---------------------|
--9--9-------9- 9-------9-9-7-7-ect-----------------|
--7--7-------7- 7-------7-7-7-7---------------------|
pm---- 000-------  000---- -------------------------|

Chorus: A D A D A

---------------------------------------------------|
---------------------------------------------------|
------------------------------7---6---5------------|
--0--1- 2--5---5-4-3-2--5-7-- 7xx-6-- 5------------|
--0--1- 2--5---5-4-3-2--5-7- -5xx-4-x 3------------|
--0--1- 2--5---5-4-3-2--5-7------------------------|

A D A D A

-------------------------------------------------------|
-------------------------------------------------------|
-------------------------------------------------------|
---2-- -------8--7--2----------------------------------|
---2----------8--7--2----------------------------------|
---2----------8--7--2----------------------------------|

With some variation.

Now i'm working on the solo !

Ed w.
Tap to rate this tab
 
# A B C D E F G H I J K L M N O P Q R S T U V W X Y Z