Song name
# A B C D E F G H I J K L M N O P Q R S T U V W X Y Z

The Drills - Beautiful Apartment tab

here`s what i think phil x plays


E|---------------------------------------------|
B|--17--17--17-17-16--16--16-16-15--15--15-15--|
G|---------------------------------------------|
D|--14--14--14-14-13--13--13-13-12--12--12-12--|
A|---------------------------------------------|
E|---------------------------------------------|



E|------------------------------------------------------------|
B|--14--14--14-14-13--13--13-13-12--12--12-12-11--11--12--11--|
G|------------------------------------------------------------|
D|--11--11--11-11-10--10--10-10-9---9---9--9--8---8---9---8---|
A|------------------------------------------------------------|
E|------------------------------------------------------------|



E|----------12-17-12----------------12-16-12-------|
B|-------------------------------------------------|
G|-14-16-17----------17-14-13-14-16----------16-14-|
D|-------------------------------------------------|
A|-------------------------------------------------|
E|-------------------------------------------------|



E|----------10-15-10----------------10-14-10----------|
B|----------------------------------------------------|
G|-12-14-15----------12-14-11-12-14----------12-11----|
D|-------------------------------------------------12-|
A|----------------------------------------------------|
E|----------------------------------------------------|
Tap to rate this tab
# A B C D E F G H I J K L M N O P Q R S T U V W X Y Z