Song name
# A B C D E F G H I J K L M N O P Q R S T U V W X Y Z

The Drums - We Tried tab

WE TRIED


VERSE:
e|----------------------------------------------| 
B|-------------6-6------------------------------| 
G|--------3-3-------6-6-6-6---------------------|    8x
D|---4-4----------------------------------------|
A|----------------------------------------------| 
E|----------------------------------------------|


e|----------------------------------------------| 
B|-------------11-11----------------------------| 
G|--------8-8---------11-11-11-11---------------|    2x
D|---9-9----------------------------------------|
A|----------------------------------------------| 
E|----------------------------------------------|



BRIDGE:
e|----------------------------------------------| 
B|-------------------------6-6------------------| 
G|---6--6--6--4--3--4--6-6------66--4--3--4-----| 
D|----------------------------------------------|
A|----------------------------------------------| 
E|----------------------------------------------|
                                                    1x
e|----------------------------------------------| 
B|-------6-6------------------6-6---------------| 
G|---6-6-----66--44-3--44-6-6-----66-4--6--10---| 
D|----------------------------------------------|
A|----------------------------------------------| 
E|----------------------------------------------|
 



my first tab, but i think this is pretty correct :)
Tap to rate this tab
 
# A B C D E F G H I J K L M N O P Q R S T U V W X Y Z