The Ember Days - Seven tab

Seven  The Ember Days
Standard Tuning

Key of E Maj

Tabbed by Jim Wheless

Intro: x2

|----------------------|--------------------|--------------------|-------------------|
|----------------------|--------------------|--------------------|-------------------|
|----------------------|--------------------|--------------------|-------------------|
|----------------------|--------------------|--------------------|-------------------|
|--11------------14----|--9-----------11----|--4------------7----|----6-----------2--|
|---0-------------0----|--0------------0----|--0------------0----|----0-----------0--|
    One, 2, 3, Four       One, 2, 3, Four      One, 2, 3, Four        One, 2, 3, Four

Verse 1: x2

  E                     B                    A                      B
 Come              To   Me            My    Child            Be  -  lov  -  ed
|----------------------|--------------------|--------------------|-------------------|
|----------------------|--------------------|--------------------|-------------------|
|----------------------|--------------------|--------------------|-------------------|
|----------------------|--------------------|--------------------|-------------------|
|--11------------14----|--9-----------11----|--4------------7----|----6-----------2--|
|---0-------------0----|--0------------0----|--0------------0----|----0-----------0--|
    One, 2, 3, Four       One, 2, 3, Four      One, 2, 3, Four      One, 2, 3, Four

 E                    B                       A                          B
Come               To   Me            The    One             I          Love
|----------------------|--------------------|--------------------|-------------------|
|----------------------|--------------------|--------------------|-------------------|
|----------------------|--------------------|--------------------|-------------------|
|----------------------|--------------------|--------------------|-------------------|
|--11------------14----|--9-----------11----|--4------------7----|----6-----------2--|
|---0-------------0----|--0------------0----|--0------------0----|----0-----------0--|
    One, 2, 3, Four       One, 2, 3, Four       One, 2, 3, Four     One, 2, 3, Four

  A
Come...
|--------------------------9--9------------11--11-----------12--12-----------11--12/14\12--|
|------12----12--12----12--------------12---------------12---------------12----------------|
|----9----9----------9----9----------9----9-----------9----9-----------9----9--------------|
|------------------------------------------------------------------------------------------|
|--5---------------------------------------------------------------------------------------|
|--0---------------------------------------------------------------------------------------|

Whoah Section1: 2x

     E
  WHOAH!...........OH..........OH
|--(12x3-11x3-14x3-11x3-12x4) x2-last time:12-11-14-12---------------------|
|--------------------------------------------------------------------------|
|--------------------------------------------------------------------------|
|--------------------------------------------------------------(THEN)-->>--|
|--------------------------------------------------------------------------|
|--------------------------------------------------------------------------|

|--------------------------9--9------------11--11-----------12--12-----------11--12/14\12--|
|------12----12--12----12--------------12---------------12---------------12----------------|
|----9----9----------9----9----------9----9-----------9----9-----------9----9--------------|
|------------------------------------------------------------------------------------------|
|------------------------------------------------------------------------------------------|
|------------------------------------------------------------------------------------------|

Whoah Section2: (Changes to B Maj!)

     B
  WHOAH!.......... OH............OH
|--(12x3-11x3-14x3-11x3-12x4) x2-last time:12-11-14-12---------------------|
|--------------------------------------------------------------------------|
|--------------------------------------------------------------------------|
|-------------------------------------------------------------(THEN)--->>--|
|--------------------------------------------------------------------------|
|--------------------------------------------------------------------------|

|--------------------------9--9------------11--11-----------12--12-----------11--12/14\12--|
|------12----12--12----12--------------12---------------12---------------12----------------|
|----9----9----------9----9----------9----9-----------9----9-----------9----9--------------|
|------------------------------------------------------------------------------------------|
|------------------------------------------------------------------------------------------|
|------------------------------------------------------------------------------------------|

Whoah Section3: (Changes to A Maj!)

     A
  WHOAH!......... OH.........OH
|--(12x3-11x3-14x3-11x3-12x4) x2-last time:12-11-14-12-------------------|
|------------------------------------------------------------------------|
|------------------------------------------------------------------------|
|-----------------------------------------------------------(THEN)--->>--|
|------------------------------------------------------------------------|
|------------------------------------------------------------------------|

|--------------------------9--9------------11--11-----------12--12-----------11--12/14\12--|
|------12----12--12----12--------------12---------------12---------------12----------------|
|----9----9----------9----9----------9----9-----------9----9-----------9----9--------------|
|------------------------------------------------------------------------------------------|
|------------------------------------------------------------------------------------------|
|------------------------------------------------------------------------------------------|
Tap to rate this tab
 
# A B C D E F G H I J K L M N O P Q R S T U V W X Y Z