Song name
# A B C D E F G H I J K L M N O P Q R S T U V W X Y Z

The Features - Action tab

-------------------------------------------------------------------------------
			     Action - The Features
-------------------------------------------------------------------------------
Tabbed by: Steven Gladman
Email: stevie.gladman@ntlworld.com

Tuning: EADGBe

Intro
B  F#

Verse
G F# B     X 4 

e|----------------------------------------------|
B|----------------------------------------------|
G|--3h4-3h4-3h4-3h4------3h4-3h4-3h4-3h4--------|
D|----------------------------------------------|
A|-------------------2--------------------------|
E|----------------------------------------2-----|  X 2


Chorus

e|---------------------------------------------------------------------------|
B|---------------------------------------------------------------------------|
G|---------------------------------------------------------------------------|
D|---------------------------------------------------------------------------|
A|-2-2-2-2-5-5-5-5-4-4-4-4-0-0-0-0-------------------------------------------|
E|---------------------------------2-2-2-2-2-2-2-2-2-2-2-2-2-2-2-2-----------|

e|---------------------------------------------------------------------------|
B|---------------------------------------------------------------------------|
G|---------------------------------------------------------------------------|
D|---------------------------------------------------------------------------|
A|-2-2-2-2-5-5-5-5-4-4-4-4-0-0-0-0-9-9-9-9-9-9-9-9-9-9-9-9-9-9-9-9-----------|
E|---------------------------------------------------------------------------|

Verse
G F# B     X 4 

e|----------------------------------------------|
B|----------------------------------------------|
G|--3h4-3h4-3h4-3h4------3h4-3h4-3h4-3h4--------|
D|----------------------------------------------|
A|-------------------2--------------------------|
E|----------------------------------------2-----|  X 2

Chorus

Bridge
B  F#  X 2
e|---------------------------------------------------------------------------|
B|---------------------------------------------------------------------------|
G|---------------9-9-7-7-----------------------------------------------------|
D|-----------9-9---------9-9-8h9-8h9-----------------8h9-8h9-8h9-8h9---------|
A|-7-7-10-10-------------------------8h9-8h9-8h9-8h9-------------------------|
E|---------------------------------------------------------------------------| 

e|---------------------------------------------------------------------------|
B|---------------------------------------------------------------------------|
G|---------------9-9-7-7-----------------------------------------------------|
D|-----------9-9---------9-9-8h9-8h9-----------------------------------------|
A|-7-7-10-10-------------------------8h9-8h9-8h9-8h9-8h9-8h9-8h9-8h9---------|
E|---------------------------------------------------------------------------| 

B  F#    X 4

Chorus

e|---------------------------------------------------------------------------|
B|---------------------------------------------------------------------------|
G|---------------------------------------------------------------------------|
D|---------------------------------------------------------------------------|
A|-2-2-2-2-5-5-5-5-4-4-4-4-0-0-0-0-------------------------------------------|
E|---------------------------------2-2-2-2-2-2-2-2-2-2-2-2-2-2-2-2-----------|

e|---------------------------------------------------------------------------|
B|---------------------------------------------------------------------------|
G|---------------------------------------------------------------------------|
D|---------------------------------------------------------------------------|
A|-2-2-2-2-5-5-5-5-4-4-4-4-0-0-0-0-9-9-9-9-9-9-9-9-9-9-9-9-9-9-9-9-----------|
E|---------------------------------------------------------------------------|

B  F#    X 4



| /  slide up
| \  slide down
| h  hammer-on
| p  pull-off
| ~  vibrato
| +  harmonic
| x  Mute note
Tap to rate this tab
 
# A B C D E F G H I J K L M N O P Q R S T U V W X Y Z