Song name
# A B C D E F G H I J K L M N O P Q R S T U V W X Y Z

The Friday Night Boys - High School tab

Band: The Friday Night Boys
Album: The Sketch Process
Song: High School
Tuning: e Standard

NOTE: (this is also the post-chorus riff for the first chorus.)
I only tabbed out the intro riff because I'm still learning the rest of the song. (:
So i'll try and post up the full song as soon as possible.
The solo might be tough though...(: So keep looking out for it! (:

e|-----------------------------|
B|----17-17p15--17/19p14-15-15-|
G|-14--------------------------|
D|-----------------------------|
A|-----------------------------|
E|-----------------------------|

e|-----------------14h15p14-----------|
B|----17-17p15--17----------17-15-----|
G|-14-----------------------------14--|
D|------------------------------------|
A|------------------------------------|
E|------------------------------------|


h = hammer-on
p = pull-off
/ = slide up
Tap to rate this tab
 
# A B C D E F G H I J K L M N O P Q R S T U V W X Y Z