Song name
# A B C D E F G H I J K L M N O P Q R S T U V W X Y Z

The Friday Night Boys - Cant Take That Away tab

-------------------------------------------------------------------------------
	      Can't Take That Away - The Friday Night Boys
-------------------------------------------------------------------------------
Tabbed by:cool
Email:none

Tuning:Standard
                   Intro/Verse:
         D         G            B          G
e|-----------2--0-------0---------2--0----------0---------------------------|
B|-------------------------3----------------------3-------------------------|
G|---------2----------0---------2-------------0-----------------------------|
D|-------0------------------------------------------------------------------|
A|----------------------------2---------------------------------------------|
E|------------------3----------------------3--------------------------------|
                   Repeat this through verse

                     Pre-Chorus:
                G              D                A
    And I'm regretting it tonight, Pushin you away,
                              Bm                        G
         I know you don't believe me, and I just wanna say...

                      Chorus:
    D            G            D             A
     I remember conversations before I gave up on me
        D            G              D          A
     And if it's any constellation, I remember everything
             D           G            D          A
     and you Can't take that, no you can't take that
        D               G               D           A
     away, you were the one who saved me, and you can't take that away


               Repeat as necessary

| /  slide up
| \  slide down
| h  hammer-on
| p  pull-off
| ~  vibrato
| +  harmonic
| x  Mute note
===============================================================================
Tap to rate this tab
# A B C D E F G H I J K L M N O P Q R S T U V W X Y Z