Song name
# A B C D E F G H I J K L M N O P Q R S T U V W X Y Z

The Gossip - Heavy Cross tab

The Gossip - Heavy Cross (Transcription By uRsOuL)   10th Of June 2009

 This tab is not intended to be accurate or official tab of the artist,
    but is merely A by-ear transcription. This tab is to be used for study,
    skill development, and scholarship only.


RIFF A
*Muted   Ooo OO Ooo
E-|--------------|--------------|--------------|-------------------|
B-|--------------|--------------|--------------|--77-8-------------|
G-|----7-7--9-9--|----7-7--9-9--|----7-7--9-9--|-------------------|
D-|--------------|--------------|--------------|-------------------|
A-|--------------|--------------|--------------|-------------------|
E-|--------------|--------------|--------------|-------------------|

E-|--------------|--------------|--------------|-------------------|
B-|--------------|--------------|--------------|-------------------|
G-|----5-5--7-7--|----5-5--7-7--|----5-5--7-7--|--55---------------|
D-|--------------|--------------|--------------|------7------------|
A-|--------------|--------------|--------------|-------------------|
E-|--------------|--------------|--------------|-------------------|

Verse 1
*Muted  ..Its A heavy cross
E-|-------------|-------------|
B-|-------------|-------------|
D-|-------------|-------------|
A-|-77777777777-|-55555555555-|
E-|-------------|-------------|

Chorus  ..I Checked You
            Muted            Muted            Muted
    D U D U D U D U  D U D U D U D U  D U D U D U D U
E-|-7-7-7-7-x-x-x-x|-7-7-7-7-x-x-x-x|-7-7-7-7-x-x-x-x-|--12--12-----|
B-|-8-8-8-8-x-x-x-x|-8-8-8-8-x-x-x-x|-8-8-8-8-x-x-x-x-|--12--12-----|
G-|-9-9-9-9-x-x-x-x|-9-9-9-9-x-x-x-x|-7-7-7-7-x-x-x-x-|-------------|
D-|-9-9-9-9-x-x-x-x|-9-9-9-9-x-x-x-x|-----------------|-------------|
A-|-7-7-7-7-x-x-x-x|-7-7-7-7-x-x-x-x|-----------------|-------------|
E-|----------------|----------------|-----------------|-------------|

               Harmonics           Harmonics
               DUDUDU              DUDUDU
E-|------------x7x7x7-|------------x7x7x7-|------------|
B-|------6^7---x7x7x7-|------6^7---x7x7x7-|------------|
G-|------6^7---x7x7x7-|------6^7---x7x7x7-|------------|
D-|------------x7x7x7-|------------x7x7x7-|------------|
A-|--5-5-----5--------|--5-5-----5--------|------------|
E-|-------------------|-------------------|------------|


E-|-7-------------|
B-|-8-------------|
G-|-9-------------|
D-|-9-------------|
A-|-7-------------|
E-|---------------|

*All Harmonics
E-|---------7-----12--|
B-|------7------------|
G-|---7---------------|
D-|-------------------|
A-|-------------------|
E-|-------------------|

*All Harmonics ... I just choose
E-|---------7--------|---------5-----|
B-|------7-----------|------7--------|
G-|---7--------------|---7-----------|
D-|------------------|---------------|
A-|------------------|---------------|
E-|------------------|---------------|

And That's About it... I did this by ear, on my steel acoustic, sounds pretty good to 
There are a few different bits in the chorus,
but I'm sure u can work it out.
uRsOuL
Tap to rate this tab
# A B C D E F G H I J K L M N O P Q R S T U V W X Y Z