Song name
# A B C D E F G H I J K L M N O P Q R S T U V W X Y Z

The Gossip - Fire Sign tab

Tabbed By: Carolyn O. 6/25/07
Artist: The Gossip
Song: Fire Sign


INTRO/VERSE: *listen for the rhythm
E-----------------------------------------------------------]
B-----------------------------------------------------------]
G-----------------------------------------------------------]
D---4--666---9-----44--4-666-----444-4-6666----444--4-6666--] REPEAT
A---4--666---X-----44--4-666-----XXX-X-XXXX----XXX--X-XXXX--]
E--/2--444---7~----22--2/444-----222-2/4444----222--2/4444--]


"Now Mary what are you thinking?"
E-------------------------------------------]
B-------------------------------------------]
G-------------------------------------------]
D--------------------999999-----------------]
A--4~-4~-4~-4~-4~----XXXXXX-----------------]
E--2~-2~-2~-2~-2~--2/777777-----------------]

BACK TO VERSE
THEN...

SOLO:*ON THE BEND. BEND DOWN.
E---------------------------------]
B---------------------------------]
G-------2222----------------------]
D--4444------4444--2222-----------] REPEAT
A-----------------------4444^-----]
E---------------------------------]

VERSE AGAIN
AND THE END.

any questions or comments
email: exploding_robots@yahoo.com



Tap to rate this tab
# A B C D E F G H I J K L M N O P Q R S T U V W X Y Z