Song name
# A B C D E F G H I J K L M N O P Q R S T U V W X Y Z

The Hiatus - Monkeys tab

Tabbed by: malphranky

Tuning: Drop D

Intro/Verse

e|-----------------------------------|
B|-----------------------------------|
G|-----------------------------------|
D|-----------------------------------| 8X
A|-----------------------------------|
D|/121212\333-555-000-333-000--------|

Chorus:

e|-----------------------------------|
B|-----------------------------------|
G|-----------------------------------|
D|-00000000-33333-55555--------------| 4X
A|-00000000-33333-55555--------------|
D|-00000000-33333-55555--------------|



Intro/verse 4x,
Chorus,

then:
Chorus changes to this.

e|-------------------------------|
B|-------------------------------|
G|-3333333--------555555---------|
D|-3333333-333333-555555-5555555-| 2X
A|-1111111-333333-333333-5555555-|
D|---------333333--------5555555-|

Clean/Slight Crunch Dist part:

e|-----------------------------------|
B|-----------------------------------|
G|-3~-5~-5~--------------------------|
D|-3~-3~-5~-5~-----------------------| 
A|-1~-3~-3~-5~-----------------------|
D|----3~----5~-----------------------|

then:


e|-----------------------------------|
B|-----------------------------------|
G|-----------------------------------|
D|--333333-555555-0000000------------| 4X 
A|--333333-555555-0000000------------|
D|--333333-555555-0000000------------|

Outro:

Play intro four times.
Tap to rate this tab
 
# A B C D E F G H I J K L M N O P Q R S T U V W X Y Z