Guitaretab - guitar tabs
Song name
# A B C D E F G H I J K L M N O P Q R S T U V W X Y Z

The Hives - Hate To Say I Told You So tab

This is an awesome song and it is very easy to learn.  The key part to learn is the rythm.  If you don't then it won't sound like the song.  The other part plays when the lead singer screams the chorus...


Main Riff
e|------------------------------------------|
B|------------------------------------------|
G|--------------------10-10-10-X------------|
D|-12-12-X-10-10-10-X-10-10-10-X-8--8--8--X-|
A|-12-12-X-10-10-10-X-8--8--8--X-8--8--8--X-|
E|-10-10-X-8--8--8--X------------6--6--6--X-|

Chorus
e|------------------------------------------|
B|------------------------------------------|
G|-4-4-4-4-4-4-4-4-4-4-4-4-4-4--------------|
D|-5-5-5-5-5-5-5-5-5-5-5-5-5-5--------------|
A|-5-5-5-5-5-5-5-5-5-5-5-5-5-5--------------|
E|-3-3-3-3-3-3-3-3-3-3-3-3-3-3--------------|

email me at matrix_345@hotmail.com if you have any questions...

[ Tab from: http://www.guitaretab.com/t/the-hives/23363.html ]
Related for Hate To Say I Told You So tab